Sound will begin in 5 seconds

Gasoline Jelly

01234567891011121314151617181920212223
E
B
G
D
A
E
B
0 1 2 3 4 5 6 7 8 9 10 11 12 13 14 15 16 17 18 19 20 21 22 23
(/) Slide Up  (\) Slide Down  (h) Hammer On  (p) Pull Off  (b) Bend (r) Release (v) Vibrato

Verse

E|-----------------------------------------------
B|-----------------------------------------------
G|-----------------------------------------------
D|-----------------------------------------------
A|-----0-----3-----0-----5-----------0-----------
E|--0-----0-----0-----0-----0--------------------

Chorus

E|-----------------------------------------
B|-----------------------------------------
G|-----------------------------------------
D|-----------------------------------------
A|-----0-----3--0--5--0--8-----0--------7--
E|--0-----0--------------------------------

Bass for Breakdown

E|-----------------------------------------------------------------------------------------
B|-----------------------------------------------------------------------------------------
G|-----------------------------------------------------------------------------------------
D|-----------------------------------------2-----0-----------------------------------------
A|--------------------0--2--3--------2--0--------------4-----3-----2--0--------2-----3-----
E|--0-----2-----3--------------------------------------------------------------------------

Guitar for Breakdown (Dazed and Confused bends)

E|--------------------------------------------------------------------------------------------
B|-----------------------------------------5-----3-----2--------------------------------------
G|--------------------2--4--5--------4--2--------------------5-----4--2--------4-----5--------
D|--2-----4-----5-----------------------------------------------------------------------------
A|--------------------------------------------------------------------------------------------
E|--------------------------------------------------------------------------------------------

http://www.guitartabcreator.com
Guitar Tab Creator is intended to store guitar tab created through the tool. It currently does not support in-line text editing. Any text you place in here will be lost. If you need to comment on your tab, please use the "Tab Notes" section located below.