Sound will begin in 5 seconds

Descent in Am

01234567891011121314151617181920212223
E
B
G
D
A
E
B
0 1 2 3 4 5 6 7 8 9 10 11 12 13 14 15 16 17 18 19 20 21 22 23
(/) Slide Up  (\) Slide Down  (h) Hammer On  (p) Pull Off  (b) Bend (r) Release (v) Vibrato

Riff 1

E|-----------------------------------------------------------------------------------------------------------------
B|-----------------------------------------------------------------------------------------------------------------
G|-----2--0--------------------------------------------2--0--------------------------------------------------------
D|-----------3--2--0--------0--------------------------------3--2--0--------0--------------------------------------
A|--0-----------------3--------3--2--0-----0--------0-----------------3--------3-----------------------------------
E|--------------------------------------3-----------------------------------------3--------------------------------

Riff 2

E|-----------------------------------------------------------------------------------------------------------
B|-----------------------------------------------------------------------------------------------------------
G|--------2--------2--5-----------2--------5--7--5--4--0-----------2--------2--5-----------2-----------------
D|--------------------------------------------------------------------------------------------------3-----2--
A|--0-----------3-----------0-----------3--------------------0-----------3-----------0-----------------------
E|-----------------------------------------------------------------------------------------------1-----0-----

Bass Riff 1

E|-----------------------------------------------------------------------------------
B|-----------------------------------------------------------------------------------
G|-----------------------------------------------------------------------------------
D|--------------------------0-----------------------------------------------0--------
A|--0--------------0--3--------3--2--0-----0-----------------------0--3--------3-----
E|--------------------------------------3-----------------------------------------3--

Bass Riff 2

E|-----------------------------------------------------------------------------------
B|-----------------------------------------------------------------------------------
G|--------------------------------------------------------------------5-----7--5-----
D|--------------------7-----------------5--------------------------------------------
A|-----------------5-----------------------0--------0--------------5-----------------
E|--5-----------8-----------------------------------------------8-----------------3--

http://www.guitartabcreator.com
Guitar Tab Creator is intended to store guitar tab created through the tool. It currently does not support in-line text editing. Any text you place in here will be lost. If you need to comment on your tab, please use the "Tab Notes" section located below.