Called Into Question (New Wave 150 BPM)

Chords

01234567891011121314151617181920212223
E
B
G
D
A
E
B
0 1 2 3 4 5 6 7 8 9 10 11 12 13 14 15 16 17 18 19 20 21 22 23
(/) Slide Up  (\) Slide Down  (h) Hammer On  (p) Pull Off  (b) Bend (r) Release (v) Vibrato

Opening Groove

E|--------------------------------------------------
B|--------------------------------------------------
G|--------------------------------------------------
D|--------------------1--1--------------------------
A|--3--3--------1--1--------3--3--------1--1--------
E|--------3--3--------------------3--3--------1--1--

Quick Little Break

E|--------------------------------------------------
B|--------------------------------------------------
G|--------------------------------------------------
D|-----------------------------------------1--1--1--
A|--------------------------1--1--1--1--------------
E|--3--3--3--3-----3--3--3--------------------------

Verse Groove

E|--------------------------------------------------
B|--------------------------------------------------
G|--------------------------------------------------
D|--------------------------------------------3--1--
A|--3--3--------1--1--------3--3--------1--3--------
E|-----------3-----------3-----------3--------------

Chorus

E|--------------------------------------------------------------------------------------------------
B|--------------------------------------------------------------------------------------------------
G|--------------------------------------------------------------------------------------------------
D|--------------------------------------------------------------------------------------------------
A|--3--3--3--3--3--3--3-----1--1--1--1--1--1--1--------------------------------------------------1--
E|-----------------------3-----------------------1--3--3--3--3--3--3--3--0--3--0--3--0--3--0--3-----

Final Chorus hangs on the final F note for 4 beats, then returns to opening groove

E|--------------------------------------------------------------------------------------------------
B|--------------------------------------------------------------------------------------------------
G|--------------------------------------------------------------------------------------------------
D|--------------------------------------------------------------------------------------------------
A|--3--3--3--3--3--3--3-----1--1--1--1--1--1--1-----------------------------------------------------
E|-----------------------3-----------------------1--3--3--3--3--3--3--3-----2-----1--1--1--1--1--1--

							http://www.guitartabcreator.com
Instruments
{"strings":[[[".",".",".",".",".",".",".",".",".",".",".",".",".",".",".","."],[".",".",".",".",".",".",".",".",".",".",".",".",".",".",".","."],[".",".",".",".",".",".",".",".",".",".",".",".",".",".",".","."],[".",".",".",".",".",".",1,1,".",".",".",".",".",".",".","."],[3,3,".",".",1,1,".",".",3,3,".",".",1,1,".","."],[".",".",3,3,".",".",".",".",".",".",3,3,".",".",1,1]],[[".",".",".",".",".",".",".",".",".",".",".",".",".",".",".","."],[".",".",".",".",".",".",".",".",".",".",".",".",".",".",".","."],[".",".",".",".",".",".",".",".",".",".",".",".",".",".",".","."],[".",".",".",".",".",".",".",".",".",".",".",".",".",1,1,1],[".",".",".",".",".",".",".",".",1,1,1,1,".",".",".","."],[3,3,3,3,".",3,3,3,".",".",".",".",".",".",".","."]],[[".",".",".",".",".",".",".",".",".",".",".",".",".",".",".","."],[".",".",".",".",".",".",".",".",".",".",".",".",".",".",".","."],[".",".",".",".",".",".",".",".",".",".",".",".",".",".",".","."],[".",".",".",".",".",".",".",".",".",".",".",".",".",".",3,1],[3,3,".",".",1,1,".",".",3,3,".",".",1,3,".","."],[".",".",".",3,".",".",".",3,".",".",".",3,".",".",".","."]],[[".",".",".",".",".",".",".",".",".",".",".",".",".",".",".",".",".",".",".",".",".",".",".",".",".",".",".",".",".",".",".","."],[".",".",".",".",".",".",".",".",".",".",".",".",".",".",".",".",".",".",".",".",".",".",".",".",".",".",".",".",".",".",".","."],[".",".",".",".",".",".",".",".",".",".",".",".",".",".",".",".",".",".",".",".",".",".",".",".",".",".",".",".",".",".",".","."],[".",".",".",".",".",".",".",".",".",".",".",".",".",".",".",".",".",".",".",".",".",".",".",".",".",".",".",".",".",".",".","."],[3,3,3,3,3,3,3,".",1,1,1,1,1,1,1,".",".",".",".",".",".",".",".",".",".",".",".",".",".",".",".",1],[".",".",".",".",".",".",".",3,".",".",".",".",".",".",".",1,3,3,3,3,3,3,3,0,3,0,3,0,3,0,3,"."]],[[".",".",".",".",".",".",".",".",".",".",".",".",".",".",".",".",".",".",".",".",".",".",".",".",".",".",".",".",".",".",".","."],[".",".",".",".",".",".",".",".",".",".",".",".",".",".",".",".",".",".",".",".",".",".",".",".",".",".",".",".",".",".",".","."],[".",".",".",".",".",".",".",".",".",".",".",".",".",".",".",".",".",".",".",".",".",".",".",".",".",".",".",".",".",".",".","."],[".",".",".",".",".",".",".",".",".",".",".",".",".",".",".",".",".",".",".",".",".",".",".",".",".",".",".",".",".",".",".","."],[3,3,3,3,3,3,3,".",1,1,1,1,1,1,1,".",".",".",".",".",".",".",".",".",".",".",".",".",".",".",".","."],[".",".",".",".",".",".",".",3,".",".",".",".",".",".",".",1,3,3,3,3,3,3,3,".",2,".",1,1,1,1,1,1]]],"numberofstrings":6,"notes":["E","B","G","D","A","E","B"],"capo":0,"stringnotes":["E4","B3","G3","D3","A2","E2"],"comments":["Opening Groove","Quick Little Break","Verse Groove","Chorus","Final Chorus hangs on the final F note for 4 beats, then returns to opening groove"],"timing":[[null,"W","W","W","W","W","W","W","W","W","W","W","W","W","W","W","W"],[null,"W","W","W","W",null,"W","W","W","W","W","W","W",null,"W","W","W"],[null,"W","W",null,"W","W","W",null,"W","W","W",null,"W","W","W","W","W"],[null,"W","W","W","W","W","W","W","W","W","W","W","W","W","W","W","W","W","W","W","W","W","W","W","W","W","W","W","W","W","W","W","W"],[null,null,null,null,null,null,null,null,null,null,null,null,null,null,null,null,null,null,null,null,null,null,null,"W",null,"W",null,"W","W","W","W","W","W"]],"timingvisible":false,"tabcounter":32,"stave":4,"totalstaves":5,"instrument":"6guitar","selectedtuning":"6_standard","version":"13"}

Member for

1 year 5 months
Submitted by modfic on Wed, 2020-07-29 19:41