Sound will begin in 5 seconds

Another Room (Milgram)

01234567891011121314151617181920212223
E
B
G
D
A
E
B
0 1 2 3 4 5 6 7 8 9 10 11 12 13 14 15 16 17 18 19 20 21 22 23
(/) Slide Up  (\) Slide Down  (h) Hammer On  (p) Pull Off  (b) Bend (r) Release (v) Vibrato

Bass Verse

E|--------------------------------------------------------------------------------------------------------
B|--------------------------------------------------------------------------------------------------------
G|--------------------------------------------------------------------------------------------------------
D|--------------------------------------------------------------------------------------------------------
A|-----------------------------------------6-----8--------------------------------------------------------
E|--8--------8--8--8--8--8--8--8--8--8--8--------------4--------4--4--4--4--4--4--4--4--4--4--6-----6-----

Bass Bridge

E|--------------------------------------------------------------------------------------------------------------------------------------------
B|--------------------------------------------------------------------------------------------------------------------------------------------
G|--------------------------------------------------------------------------------------------------------------------------------------------
D|--------------------------------------------------------------------------------------------------------------------------------------------
A|--3--5--------------3--5--------------3--5--------------3--5-----------------------------------------------------------0--1-----------------
E|--------------------------------------------------------------------------1--3--------------1--3-----------------1--3-----------------------

Lead Verse

E|--------------------------------------------------------
B|--------------------------------------------------1-----
G|--------------------3--2-----------------------0--------
D|--0-----------------------3-----------------------------
A|--------------------------------------------------------
E|--------------------------------------------------------

Lead Chorus Riff

E|--------------------------------------------------------------------------------------------------
B|--------------------------------------------3-----------------------------------------------------
G|--------3--2-----------0-----------3--2-----------------3--2-----------0-----------3--2-----------
D|--0--------------0--3--------0-----------3--------0--------------0--3--------0-----------3--------
A|--------------------------------------------------------------------------------------------3-----
E|--------------------------------------------------------------------------------------------------

http://www.guitartabcreator.com
Guitar Tab Creator is intended to store guitar tab created through the tool. It currently does not support in-line text editing. Any text you place in here will be lost. If you need to comment on your tab, please use the "Tab Notes" section located below.