Sound will begin in 5 seconds

Sweet Child of Mine

01234567891011121314151617181920212223
E
B
G
D
A
E
B
0 1 2 3 4 5 6 7 8 9 10 11 12 13 14 15 16 17 18 19 20 21 22 23
Song Science #1: How Pros Use 6 Chords to Write Hit Songs
(/) Slide Up  (\) Slide Down  (h) Hammer On  (p) Pull Off  (b) Bend (r) Release (v) Vibrato

Stave 1:

Gb|-------11----11-12-14-16-14p12-11----------12----10-9----10-9------------12----12p11-12-11---------
Db|----12----12----------------------12----10----10------10------10-9---/12---/12-------------12------
Ab|-12----------------------------------12----------------------------10------------------------------
Eb|----------------------------------------------------------------------------------------------0-12\

Stave 2:

Gb|---------------------------------------------------------------------------7---------
Db|-------------------------------------------------------------5-------------------5-4-
Ab|-5-5-5-5-5-5-5-5----0-2-3-3-3-3-3-3----3-3-2-0-----------------3-5-5-5-5-5---0-5-----
Eb|-----------------------------------------------3-3-3-3-3-3-3-------------------------

Stave 3:

Gb|------------------------------------------------------------------------------------------------------
Db|----------------------------------------------------------------------------10-11-12-12-12-12-12------
Ab|-5-5-5-5-5-5-5-5----0-2-3-3-3-3-3---------------------------------3-4-5-5-5---------------------------
Eb|----------------------------------0-0-0-1-1-2-2-3-3-3-3-3-3-3-3-0--------------------------------0-12/

Stave 4:

Gb|-------------------------------------------------------------------------------------------
Db|----------------------------------7-5-4--------------------------10-11-12-12-12-12-12------
Ab|-0-0-0-2-3-3-3-0----0-5-5-5-5-5-5-------5----0-0-0-2-3-3-3-5-5-5---------------------------
Eb|--------------------------------------------------------------------------------------0-12\

Stave 5:

Gb|---------------7---------------5-------5---------------------------------------7---------
Db|-------------------------------------------------------------------------------------5-4-
Ab|-5-5-5-5-5-5-5---5-0-3-3-3-3-3---3-0-3---3-0-------------2-0-3-0-4-0-5-5-5-5-5---5-0-----
Eb|---------------------------------------------3-3-3-3-3-0---------------------------------

Stave 6:

Gb|-----------------------------------------------------------------7-----7---7---
Db|-----------------------------5-3-2-0-------------------------------------------
Ab|-5-5-5-5-5-5-5-5-3-3-3-3-3-3-------------------------3-5-5-5-5-5---5-5---5---5-
Eb|-------------------------------------3-3-3-3-3-3-3-3---------------------------

Stave 7:

Gb|-------------------------------------------------------------------------------------------------
Db|-----------------------------------------------------3-4-5-------------10-11-12-12-12-12-12------
Ab|-5-5-5-5-5-5-5-5-3-3-3-3-3---------------------------------0-3-4-5-5-5---------------------------
Eb|---------------------------0-0-0-1-1-2-2-3-3-3-3-3-0----------------------------------------0-12\

Stave 8:

Gb|-------------------------------7------------------------------7---7-----7-7-
Db|------------------------------------------------------------5---0---7-0-----
Ab|-0-0-0-2-3-3-3-0-5-5-5-5-5-5-5---5-7----0-0-0-2-3-3-3-5-5-5-----------------
Eb|----------------------------------------------------------------------------

Stave 9:

Gb|-----------------------------------------------------------------------------------
Db|---------------------------2-2-2-3-3-4-------------3-4-5-----------------7-0-0-5-4-
Ab|-5-5-5-5-5-5-5-2-3-3-3-3-3-------------------------------0-3-4-5-5-5-5/9-----------
Eb|---------------------------------------0-3-3-3-3-0---------------------------------

Stave 10:

Gb|----------------------------------------------------------------------------------------------
Db|---------------------------------------------------3-4-5-----------------12-12-12-12-12-12----
Ab|-5-5-5-5-5-5-5-0-2-3-3-3-3-3-3-3-2-2-0-------------------0-3-4-5-5-5-5-0----------------------
Eb|---------------------------------------3-3-3-3-3-0-----------------------------------------12\

Stave 11:

Gb|-------------------------------------------------------------------------------------------------------
Db|---------------------------7-7-7-7-5-4-----------------------------------------------------------------
Ab|-0-0-0-2-3-3-3-0-5-5-5-5-5-------------5-0-0-0-2-3-3-3-5-5-5-5-5---------------0-0-0-2-3-3-3-0-5-5-5-5-
Eb|-----------------------------------------------------------------0-2-0-3-0-4-0-------------------------

http://www.guitartabcreator.com
Guitar Tab Creator is intended to store guitar tab created through the tool. It currently does not support in-line text editing. Any text you place in here will be lost. If you need to comment on your tab, please use the "Tab Notes" section located below.