Urbanski - fb bass

Chords

01234567891011121314151617181920212223
E
B
G
D
A
E
B
0 1 2 3 4 5 6 7 8 9 10 11 12 13 14 15 16 17 18 19 20 21 22 23
(/) Slide Up  (\) Slide Down  (h) Hammer On  (p) Pull Off  (b) Bend (r) Release (v) Vibrato

Stave 1:

G|-------------------------
D|-------------------------
A|-----------9-------------
E|--7h10-----------5h7--7--

Stave 2:

G|---------------------------------------------
D|---------------------------------------------
A|--------7--9--12-----5-----------------------
E|--7h10------------------7--7--7--5--7--7--7--

Stave 3:

G|------------------------------------------------
D|------------------------------------------------
A|-----------9--12-----5--------------------------
E|--7/10------------5-----7--7--7-----5--7--7--7--

Stave 4:

G|------------------------------------------------
D|------------------------------------------------
A|--------7--9--12-----5--------------------------
E|--7/10------------5-----5--7--7--5--5--7--7--7--

Stave 5:

G|------------------------------------------
D|------------------------------------------
A|--------9--12--------------7--7--5--------
E|--7/10---------5--7--7--7-----------7--7--

Stave 6:

G|--------------------------------------------------------------------------------------------------------------
D|--------------------------------------------------------------------------------------------------------------
A|-----------9--12--------9-----------7--7--5--------------------7--9--12---------9-----------------5--9--------
E|--7/10------------7h10-----5--7--7-----------7--7--------7/10------------7--10-----5--7--7--5--7--------7--7--

Stave 7:

G|---------------------------------------------------
D|---------------------------------------------------
A|--------7--9--12--------5--7--------9--9--7--------
E|--7/10------------5--7--------7--7-----------7--7--

							http://www.guitartabcreator.com
Instruments
{"strings":[[[".",".",".","_",".","_",".",".",".","."],[".",".",".","_",".","_",".",".",".","."],[".",".",".","_",9,"_",".",".",".","."],[7,"h",10,"_",".","_",5,"h",7,7]],[[".",".",".",".",".",".","_",".",".",".",".",".",".",".","."],[".",".",".",".",".",".","_",".",".",".",".",".",".",".","."],[".",".",".",7,9,12,"_",5,".",".",".",".",".",".","."],[7,"h",10,".",".",".","_",".",7,7,7,5,7,7,7]],[[".",".",".","_",".",".",".",".",".",".",".","_",".",".",".","."],[".",".",".","_",".",".",".",".",".",".",".","_",".",".",".","."],[".",".",".","_",9,12,".",5,".",".",".","_",".",".",".","."],[7,"/",10,"_",".",".",5,".",7,7,7,"_",5,7,7,7]],[[".",".",".",".",".",".",".",".",".",".",".",".",".",".",".","."],[".",".",".",".",".",".",".",".",".",".",".",".",".",".",".","."],[".",".",".",7,9,12,".",5,".",".",".",".",".",".",".","."],[7,"/",10,".",".",".",5,".",5,7,7,5,5,7,7,7]],[[".",".",".",".",".",".",".",".",".",".",".",".",".","."],[".",".",".",".",".",".",".",".",".",".",".",".",".","."],[".",".",".",9,12,".",".",".",".",7,7,5,".","."],[7,"/",10,".",".",5,7,7,7,".",".",".",7,7]],[[".",".",".","_",".",".",".",".",".",".",".",".",".",".",".",".",".",".","_","_",".",".",".",".",".",".",".",".",".",".",".",".",".",".",".",".",".","."],[".",".",".","_",".",".",".",".",".",".",".",".",".",".",".",".",".",".","_","_",".",".",".",".",".",".",".",".",".",".",".",".",".",".",".",".",".","."],[".",".",".","_",9,12,".",".",".",9,".",".",".",7,7,5,".",".","_","_",".",".",".",7,9,12,".",".",9,".",".",".",".",".",5,9,".","."],[7,"/",10,"_",".",".",7,"h",10,".",5,7,7,".",".",".",7,7,"_","_",7,"/",10,".",".",".",7,10,".",5,7,7,5,7,".",".",7,7]],[[".",".",".",".",".",".",".",".",".",".",".",".",".",".",".",".","."],[".",".",".",".",".",".",".",".",".",".",".",".",".",".",".",".","."],[".",".",".",7,9,12,".",".",5,7,".",".",9,9,7,".","."],[7,"/",10,".",".",".",5,7,".",".",7,7,".",".",".",7,7]]],"numberofstrings":4,"notes":["G","D","A","E"],"capo":0,"stringnotes":["G2","D2","A1","E1"],"comments":["Stave 1:","Stave 2:","Stave 3:","Stave 4:","Stave 5:","Stave 6:","Stave 7:"],"timing":[["W",null,"W",null,"W",null,"W",null,"W","W"],["W",null,"W","W","W","W",null,"W","W","W","W","W","W","W","W"],["W",null,"W","W","W","W","W","W","W","W","W",null,"W","W","W","W"],["W",null,"W","W","W","W","W","W","W","W","W","W","W","W","W","W"],["W",null,"W","W","W","W","W","W","W","W","W","W","W","W"],["W",null,"W",null,"W","W","W",null,"W","W","W","W","W","W","W","W","W","W",null,null,"W",null,"W","W","W","W","W","W","W","W","W","W","W","W","W","W","W","W"],["W",null,"W","W","W","W","W","W","W","W","W","W","W","W","W","W","W"]],"timingvisible":false,"tabcounter":17,"stave":6,"totalstaves":7,"instrument":"4bass","selectedtuning":"4bass","version":"13"}

Member for

1 year 8 months
Submitted by MM420 on Mon, 2020-06-08 14:49