Stealth, The Dap-Kings - Black Heart

Chords

01234567891011121314151617181920212223
E
B
G
D
A
E
B
0 1 2 3 4 5 6 7 8 9 10 11 12 13 14 15 16 17 18 19 20 21 22 23
(/) Slide Up  (\) Slide Down  (h) Hammer On  (p) Pull Off  (b) Bend (r) Release (v) Vibrato

Stave 1:

G|----------------------
D|--------10/12--8--10--
A|----------------------
E|--8--8----------------

Stave 2:

G|-----------------------------------------------------------------------------
D|---------------------------------------------------------------10/12--8--10--
A|------------------------------------------8----------------------------------
E|--11--11--8--10--10/11--11--7--8--10--10-----8--9--9--7--8--8----------------

Stave 3:

G|-------------------------------------------------------------------------------------------------
D|-----------------------------------------8------------9/10-----10/12--8--10--------10/12--8--10--
A|--11--11--8--9--11--11--8--9--11--11--8-----8--8--11---------------------------------------------
E|------------------------------------------------------------8----------------8--8----------------

Stave 4:

G|--------------------------------------------------------------------------------------------
D|--------------------------------------------------------------------------------------------
A|--11--11--8--9--11--11--8--9--11---------------8--------------------------------------------
E|----------------------------------11--9--8--8-----8--9--11-----8--11--10-----9-----7--8--8--

							http://www.guitartabcreator.com
Instruments
{"title":"Stealth, The Dap-Kings - Black Heart","strings":[[[".",".",".",".",".",".","."],[".",".",10,"/",12,8,10],[".",".",".",".",".",".","."],[8,8,".",".",".",".","."]],[[".",".",".",".",".",".",".",".",".",".",".",".",".",".",".",".",".",".",".",".",".",".",".","."],[".",".",".",".",".",".",".",".",".",".",".",".",".",".",".",".",".",".",".",10,"/",12,8,10],[".",".",".",".",".",".",".",".",".",".",".",".",8,".",".",".",".",".",".",".",".",".",".","."],[11,11,8,10,10,"/",11,11,7,8,10,10,".",8,9,9,7,8,8,".",".",".",".","."]],[[".",".",".",".",".",".",".",".",".",".",".",".",".",".",".",".",".",".",".",".",".",".",".",".",".",".",".",".",".",".","."],[".",".",".",".",".",".",".",".",".",".",".",8,".",".",".",9,"/",10,".",10,"/",12,8,10,".",".",10,"/",12,8,10],[11,11,8,9,11,11,8,9,11,11,8,".",8,8,11,".",".",".",".",".",".",".",".",".",".",".",".",".",".",".","."],[".",".",".",".",".",".",".",".",".",".",".",".",".",".",".",".",".",".",8,".",".",".",".",".",8,8,".",".",".",".","."]],[[".",".",".",".",".",".",".",".",".",".",".",".",".",".",".",".",".","_",".",".",".","_",".","_",".",".","."],[".",".",".",".",".",".",".",".",".",".",".",".",".",".",".",".",".","_",".",".",".","_",".","_",".",".","."],[11,11,8,9,11,11,8,9,11,".",".",".",".",8,".",".",".","_",".",".",".","_",".","_",".",".","."],[".",".",".",".",".",".",".",".",".",11,9,8,8,".",8,9,11,"_",8,11,10,"_",9,"_",7,8,8]]],"numberofstrings":4,"notes":["G","D","A","E"],"capo":0,"stringnotes":["G2","D2","A1","E1"],"comments":["Stave 1:","Stave 2:","Stave 3:","Stave 4:"],"timing":[["W","W","W",null,"W","W","W"],["W","W","W","W","W",null,"W","W","W","W","W","W","W","W","W","W","W","W","W","W",null,"W","W","W"],["W","W","W","W","W","W","W","W","W","W","W","W","W","W","W","W","W","W","W","W","W","W","W","W","W","W","W","W","W","W","W"],["W","W","W","W","W","W","W","W","W","W","W","W","W","W","W","W","W",null,"W","W","W",null,"W",null,"W","W","W","W",null,"W","W","W"]],"timingvisible":false,"tabcounter":27,"stave":3,"totalstaves":4,"instrument":"4bass","selectedtuning":"4bass_standard","version":"13"}

Member for

1 year 8 months
Submitted by MM420 on Sun, 2019-11-10 04:48