Natalia Przybysz - Cienie

Chords

01234567891011121314151617181920212223
E
B
G
D
A
E
B
0 1 2 3 4 5 6 7 8 9 10 11 12 13 14 15 16 17 18 19 20 21 22 23
(/) Slide Up  (\) Slide Down  (h) Hammer On  (p) Pull Off  (b) Bend (r) Release (v) Vibrato

Verse

G|-----------------------------------------------------------------
D|-----------------6--6--6--------------------------------6--------
A|-----------6--8-----------8-----6--8--8--8--8--8--8--8-----------
E|--8--8--8--------------------8-----------------------------6--8--

Chorus 1

G|-----------------------------------------------------------------------
D|-----------------------------------------------------------------6-----
A|--------------------------------6-----8--8--8--6--8--8--6--8--8-----6--
E|--8--8--6--8--8--6--8--8--6--8-----------------------------------------

Chorus 2

G|--------------------------------------------------------------------
D|-----------------------------------6--------------------------6-----
A|-----------------------------6--8--------8--6--8--8--6--8--8-----6--
E|--8--8--6--8--8--6--8--8--8-----------------------------------------

							http://www.guitartabcreator.com
Instruments
{"title":"Natalia Przybysz - Cienie","strings":[[[".",".",".",".",".",".",".",".",".",".",".",".",".",".",".",".",".",".",".",".","."],[".",".",".",".",".",6,6,6,".",".",".",".",".",".",".",".",".",".",6,".","."],[".",".",".",6,8,".",".",".",8,".",6,8,8,8,8,8,8,8,".",".","."],[8,8,8,".",".",".",".",".",".",8,".",".",".",".",".",".",".",".",".",6,8]],[[".",".",".",".",".",".",".",".",".",".",".","_",".",".",".",".",".",".",".",".",".",".","."],[".",".",".",".",".",".",".",".",".",".",".","_",".",".",".",".",".",".",".",".",".",6,"."],[".",".",".",".",".",".",".",".",".",".",6,"_",8,8,8,6,8,8,6,8,8,".",6],[8,8,6,8,8,6,8,8,6,8,".","_",".",".",".",".",".",".",".",".",".",".","."]],[[".",".",".",".",".",".",".",".",".",".",".",".","_",".",".",".",".",".",".",".",".","."],[".",".",".",".",".",".",".",".",".",".",".",6,"_",".",".",".",".",".",".",".",6,"."],[".",".",".",".",".",".",".",".",".",6,8,".","_",8,6,8,8,6,8,8,".",6],[8,8,6,8,8,6,8,8,8,".",".",".","_",".",".",".",".",".",".",".",".","."]]],"numberofstrings":4,"notes":["G","D","A","E"],"capo":0,"stringnotes":["G2","D2","A1","E1"],"comments":["Verse","Chorus 1","Chorus 2"],"timing":[["W","W","W","W","W","W","W","W","W","W","W","W","W","W","W","W","W","W","W","W","W","W"],["W","W","W","W","W","W","W","W","W","W","W",null,"W","W","W","W","W","W","W","W","W","W","W"],["W","W","W","W","W","W","W","W","W","W","W","W","W","W","W","W","W","W","W","W","W","W"]],"timingvisible":false,"tabcounter":21,"stave":0,"totalstaves":3,"instrument":"4bass","selectedtuning":"4bass_standard","version":"13"}

Member for

1 year 8 months
Submitted by MM420 on Sun, 2019-10-27 04:46