Mark Ronson - Late Night Feelings

Chords

01234567891011121314151617181920212223
E
B
G
D
A
E
B
0 1 2 3 4 5 6 7 8 9 10 11 12 13 14 15 16 17 18 19 20 21 22 23
(/) Slide Up  (\) Slide Down  (h) Hammer On  (p) Pull Off  (b) Bend (r) Release (v) Vibrato

Stave 1:

G|-----------------------------------------------------------------------------
D|--2-----0h2--0-----0------------------------0h2--0h2--0-----0----------------
A|----------------------2-----0h2--3-----2h3---------------------2-----0h2--3--
E|-----------------------------------------------------------------------------

Stave 2:

G|--------------------------------------------------------------------------------------------------------
D|--------------------------------------------------------------------------------------------------------
A|-----------3-----------3--3--0--0--3--0--0--------3--3--0--0--3--0--0--------0--2--3--3--0--0--3--0--0--
E|--3--3--3-----3--3--3--------------------------3--------------------------3-----------------------------

							http://www.guitartabcreator.com
Instruments
{"title":"Mark Ronson - Late Night Feelings","strings":[[[".","_",".",".",".",".","_",".",".","_",".",".",".",".","_",".",".",".",".",".",".",".",".",".",".","_",".",".","_",".",".",".","."],[2,"_",0,"h",2,0,"_",0,".","_",".",".",".",".","_",".",".",".",0,"h",2,0,"h",2,0,"_",0,".","_",".",".",".","."],[".","_",".",".",".",".","_",".",2,"_",0,"h",2,3,"_",2,"h",3,".",".",".",".",".",".",".","_",".",2,"_",0,"h",2,3],[".","_",".",".",".",".","_",".",".","_",".",".",".",".","_",".",".",".",".",".",".",".",".",".",".","_",".",".","_",".",".",".","."]],[[".",".",".",".",".",".",".",".",".",".",".",".",".",".","_",".",".",".",".",".",".",".",".","_",".",".",".",".",".",".",".",".",".","."],[".",".",".",".",".",".",".",".",".",".",".",".",".",".","_",".",".",".",".",".",".",".",".","_",".",".",".",".",".",".",".",".",".","."],[".",".",".",3,".",".",".",3,3,0,0,3,0,0,"_",".",3,3,0,0,3,0,0,"_",".",0,2,3,3,0,0,3,0,0],[3,3,3,".",3,3,3,".",".",".",".",".",".",".","_",3,".",".",".",".",".",".",".","_",3,".",".",".",".",".",".",".",".","."]]],"numberofstrings":4,"notes":["G","D","A","E"],"capo":0,"stringnotes":["G2","D2","A1","E1"],"comments":["Stave 1:","Stave 2:"],"timing":[["W",null,"W",null,"W","W",null,"W","W",null,"W",null,"W","W","W","W",null,"W","W",null,"W","W",null,"W","W",null,"W","W",null,"W",null,"W","W"],["W","W","W","W","W","W","W","W","W","W","W","W","W","W",null,"W","W","W","W","W","W","W","W",null,"W","W","W","W","W","W","W","W","W","W"]],"timingvisible":false,"tabcounter":34,"stave":1,"totalstaves":2,"instrument":"4bass","selectedtuning":"4bass_standard","version":"13"}

Member for

1 year 8 months
Submitted by MM420 on Mon, 2020-04-06 09:19