Liam Bailey - Black Moon

Chords

01234567891011121314151617181920212223
E
B
G
D
A
E
B
0 1 2 3 4 5 6 7 8 9 10 11 12 13 14 15 16 17 18 19 20 21 22 23
(/) Slide Up  (\) Slide Down  (h) Hammer On  (p) Pull Off  (b) Bend (r) Release (v) Vibrato

Stave 1:

G|------------------------------------------------------------------------------------------------------------------------------------------
D|------------------------------------------------------------------------------------------------------------------------------------------
A|--10--10--8--9--10------10--10--8--9--10------10--10--8--9--10------10--10--8--9--10------12--12--10--11--12------12--12--10--11--12------
E|--------------------10--------------------10--------------------10--------------------10----------------------12----------------------12--

Stave 2:

G|-----------------------------------
D|-----------------------------------
A|--12--12--10--11--12---------------
E|----------------------12-----8-----

Stave 3:

G|-------------------------------------------------------------------------------------------------------------
D|-----8--7--5-----------5-----8--7--5-----------5----------13------10-----------------------------------------
A|--------------x--5--8-----------------x--5--8---------13------13------10-----10--------------10--10--10--10--
E|--6-----------------------6-----------------------11----------------------8------8-----8---------------------

Stave 4:

G|----------------------------------------------------------------------------------------------------------------------------
D|----------------------------------------------------------13------10----------------10--10--10--10--10--10--10--10--10--10--
A|------------------------------------------------------13------13------10-----10---------------------------------------------
E|--------------------------------------------------11----------------------8------8------------------------------------------

Stave 5:

G|------------------------------------------------------------------------------------------
D|------------------------------------------------------------------------------------------
A|--10--10--8--9--10------10--10--8--9--10------10--10--8--9--10------10--10--8--9--10------
E|--------------------10--------------------10--------------------10--------------------10--

Stave 6:

G|----------------------------------------------------------------------------------------------
D|----------------------------------------------------------------------------------------------
A|--10--10--10------8------10--10--10------8------10--10--10------8------10--10--10------8------
E|--------------10-----10--------------10-----10--------------10-----10--------------10-----10--

Stave 7:

G|-----------------------------------------------------------4/5--3--------
D|-----------------------------------------------------3-------------5--3--
A|--5--5--5-----3-----5--5--5-----3-----3--3--3--3--5-----5----------------
E|-----------5-----5-----------5-----5-------------------------------------

							http://www.guitartabcreator.com
Instruments
{"strings":[[[".",".",".",".",".",".",".",".",".",".",".",".",".",".",".",".",".",".",".",".",".",".",".",".",".",".",".",".",".",".",".",".",".",".",".","."],[".",".",".",".",".",".",".",".",".",".",".",".",".",".",".",".",".",".",".",".",".",".",".",".",".",".",".",".",".",".",".",".",".",".",".","."],[10,10,8,9,10,".",10,10,8,9,10,".",10,10,8,9,10,".",10,10,8,9,10,".",12,12,10,11,12,".",12,12,10,11,12,"."],[".",".",".",".",".",10,".",".",".",".",".",10,".",".",".",".",".",10,".",".",".",".",".",10,".",".",".",".",".",12,".",".",".",".",".",12]],[[".",".",".",".",".",".","_",".","_"],[".",".",".",".",".",".","_",".","_"],[12,12,10,11,12,".","_",".","_"],[".",".",".",".",".",12,"_",8,"_"]],[[".",".",".",".","_",".",".",".",".",".",".",".","_",".",".",".",".",".",".",".",".",".",".",".",".","_",".","_",".",".",".","."],[".",8,7,5,"_",".",".",5,".",8,7,5,"_",".",".",5,".",".",13,".",10,".",".",".",".","_",".","_",".",".",".","."],[".",".",".",".","x",5,8,".",".",".",".",".","x",5,8,".",".",13,".",13,".",10,".",10,".","_",".","_",10,10,10,10],[6,".",".",".","_",".",".",".",6,".",".",".","_",".",".",".",11,".",".",".",".",".",8,".",8,"_",8,"_",".",".",".","."]],[["_","_","_","_","_","_","_","_","_","_","_","_","_","_","_","_",".",".",".",".",".",".",".",".",".",".",".",".",".",".",".",".",".",".","."],["_","_","_","_","_","_","_","_","_","_","_","_","_","_","_","_",".",".",13,".",10,".",".",".",".",10,10,10,10,10,10,10,10,10,10],["_","_","_","_","_","_","_","_","_","_","_","_","_","_","_","_",".",13,".",13,".",10,".",10,".",".",".",".",".",".",".",".",".",".","."],["_","_","_","_","_","_","_","_","_","_","_","_","_","_","_","_",11,".",".",".",".",".",8,".",8,".",".",".",".",".",".",".",".",".","."]],[[".",".",".",".",".",".",".",".",".",".",".",".",".",".",".",".",".",".",".",".",".",".",".","."],[".",".",".",".",".",".",".",".",".",".",".",".",".",".",".",".",".",".",".",".",".",".",".","."],[10,10,8,9,10,".",10,10,8,9,10,".",10,10,8,9,10,".",10,10,8,9,10,"."],[".",".",".",".",".",10,".",".",".",".",".",10,".",".",".",".",".",10,".",".",".",".",".",10]],[[".",".",".",".",".",".",".",".",".",".",".",".",".",".",".",".",".",".",".",".",".",".",".","."],[".",".",".",".",".",".",".",".",".",".",".",".",".",".",".",".",".",".",".",".",".",".",".","."],[10,10,10,".",8,".",10,10,10,".",8,".",10,10,10,".",8,".",10,10,10,".",8,"."],[".",".",".",10,".",10,".",".",".",10,".",10,".",".",".",10,".",10,".",".",".",10,".",10]],[[".",".",".",".",".",".",".",".",".",".",".",".",".",".",".",".",".",".",".",4,"/",5,3,".","."],[".",".",".",".",".",".",".",".",".",".",".",".",".",".",".",".",".",3,".",".",".",".",".",5,3],[5,5,5,".",3,".",5,5,5,".",3,".",3,3,3,3,5,".",5,".",".",".",".",".","."],[".",".",".",5,".",5,".",".",".",5,".",5,".",".",".",".",".",".",".",".",".",".",".",".","."]]],"numberofstrings":4,"notes":["G","D","A","E"],"capo":0,"stringnotes":["G2","D2","A1","E1"],"comments":["Stave 1:","Stave 2:","Stave 3:","Stave 4:","Stave 5:","Stave 6:","Stave 7:"],"timing":[["W","W","W","W","W","W","W","W","W","W","W","W","W","W","W","W","W","W","W","W","W","W","W","W","W","W","W","W","W","W","W","W","W","W","W","W","W","W","W","W","W","W"],["W","W","W","W","W","W","W","W"],["W","W","W","W",null,"W","W","W","W","W","W","W","W","W","W","W","W","W","W","W","W","W","W","W","W",null,"W",null,"W","W","W","W"],[null,null,null,null,null,null,null,null,null,null,null,null,null,null,null,null,"W","W","W","W","W","W","W","W","W","W","W","W","W","W","W","W","W","W","W"],["W","W","W","W","W","W","W","W","W","W","W","W","W","W","W","W","W","W","W","W","W","W","W","W"],["W","W","W","W","W","W","W","W","W","W","W","W","W","W","W","W","W","W","W","W","W","W","W","W"],["W","W","W","W","W","W","W","W","W","W","W","W","W","W","W","W","W","W","W","W",null,"W","W","W","W"]],"timingvisible":false,"tabcounter":25,"stave":6,"totalstaves":7,"instrument":"4bass","selectedtuning":"4bass","version":"13"}

Member for

1 year 7 months
Submitted by MM420 on Sun, 2020-09-20 06:24