LEISURE - Felling Free

Chords

01234567891011121314151617181920212223
E
B
G
D
A
E
B
0 1 2 3 4 5 6 7 8 9 10 11 12 13 14 15 16 17 18 19 20 21 22 23
(/) Slide Up  (\) Slide Down  (h) Hammer On  (p) Pull Off  (b) Bend (r) Release (v) Vibrato

Stave 1:

G|----------------------------
D|----------2--2--------------
A|----------------2--0--------
E|--0--0h3--------------3--0--

Stave 2:

G|-----------------------------
D|--------4--4--4--5--4--2-----
A|-----------------------------
E|--0--3--------------------0--

Stave 3:

G|-----------------------
D|-----------------------
A|--------0-----------0--
E|--3-----------3--------

							http://www.guitartabcreator.com
Instruments
{"title":"LEISURE - Felling Free","strings":[[[".",".",".",".",".",".",".",".",".","."],[".",".",".",".",2,2,".",".",".","."],[".",".",".",".",".",".",2,0,".","."],[0,0,"h",3,".",".",".",".",3,0]],[[".",".",".",".",".",".",".",".","."],[".",".",4,4,4,5,4,2,"."],[".",".",".",".",".",".",".",".","."],[0,3,".",".",".",".",".",".",0]],[[".","_",".","_",".","_","."],[".","_",".","_",".","_","."],[".","_",0,"_",".","_",0],[3,"_",".","_",3,"_","."]]],"numberofstrings":4,"notes":["G","D","A","E"],"capo":0,"stringnotes":["G2","D2","A1","E1"],"comments":["Stave 1:","Stave 2:","Stave 3:"],"timing":[["W","W","W","W","W","W","W","W","W","W"],["W","W","W","W","W","W","W","W","W"],["W",null,"W",null,"W",null,"W",null,"W"]],"timingvisible":false,"tabcounter":10,"stave":0,"totalstaves":3,"instrument":"4bass","selectedtuning":"4bass_standard","version":"13"}

Member for

1 year 8 months
Submitted by MM420 on Sun, 2019-11-17 14:13