Lee Fields, The Expressions - It Rains Love

Chords

01234567891011121314151617181920212223
E
B
G
D
A
E
B
0 1 2 3 4 5 6 7 8 9 10 11 12 13 14 15 16 17 18 19 20 21 22 23
(/) Slide Up  (\) Slide Down  (h) Hammer On  (p) Pull Off  (b) Bend (r) Release (v) Vibrato

Intro

G|-----------------------------------------------------------------------------------------------------
D|-----------------5--7--------------------2--4-----------------------5--7--------------------2--4-----
A|--4--5-----5--8--------4-----4--2--2--5--------2-----4--5-----5--8--------4-----4--2--2--5--------2--
E|-----------------------------------------------------------------------------------------------------

1

G|-----------------------------------------------------------------------------------------------------------------------4--
D|--------------------------5--7--------------------2--4--------------------------------5--7--------------------2--4--------
A|--0--2--4--4--5-----5--8--------4-----4--2--2--5--------2-----5--2--4--4--5-----5--8--------4-----4--2--2--5--------2-----
E|--------------------------------------------------------------------------------------------------------------------------

2

G|-----------------------------------------------------------------------------------------------------------------------|--|--4--
D|--------------------------5--7--------------------2--4--------------------------------5--7--------------------2--4-----|--|-----
A|--0--2--4--4--5-----5--8--------4-----4--2--2--5--------2-----5--2--4--4--5-----5--8--------4-----4--2--2--5--------2--|--|-----
E|-----------------------------------------------------------------------------------------------------------------------|--|-----

Stave 4:

G|--|-----------------------------------------------------4--|--|--|-----------------------------------------------------|--|--
D|--|--------------------5--7--------------------2--4--------|--|--|--------------------5--7--------------------2--4-----|--|--
A|--|--4--4--5-----5--8--------4-----4--2--2--5--------2-----|--|--|--4--4--5-----5--8--------4-----4--2--2--5--------2--|--|--
E|--|--------------------------------------------------------|--|--|-----------------------------------------------------|--|--

							http://www.guitartabcreator.com
Instruments
{"strings":[[[".",".","_",".",".",".",".",".","_",".",".",".",".",".",".",".","_",".",".","_",".",".",".",".",".","_",".",".",".",".",".",".","."],[".",".","_",".",".",5,7,".","_",".",".",".",".",2,4,".","_",".",".","_",".",".",5,7,".","_",".",".",".",".",2,4,"."],[4,5,"_",5,8,".",".",4,"_",4,2,2,5,".",".",2,"_",4,5,"_",5,8,".",".",4,"_",4,2,2,5,".",".",2],[".",".","_",".",".",".",".",".","_",".",".",".",".",".",".",".","_",".",".","_",".",".",".",".",".","_",".",".",".",".",".",".","."]],[[".",".",".",".",".","_",".",".",".",".",".","_",".",".",".",".",".",".",".","_",".",".",".",".",".","_",".",".",".",".",".","_",".",".",".",".",".",".",".",4],[".",".",".",".",".","_",".",".",5,7,".","_",".",".",".",".",2,4,".","_",".",".",".",".",".","_",".",".",5,7,".","_",".",".",".",".",2,4,".","."],[0,2,4,4,5,"_",5,8,".",".",4,"_",4,2,2,5,".",".",2,"_",5,2,4,4,5,"_",5,8,".",".",4,"_",4,2,2,5,".",".",2,"."],[".",".",".",".",".","_",".",".",".",".",".","_",".",".",".",".",".",".",".","_",".",".",".",".",".","_",".",".",".",".",".","_",".",".",".",".",".",".",".","."]],[[".",".",".",".",".","_",".",".",".",".",".","_",".",".",".",".",".",".",".","_",".",".",".",".",".","_",".",".",".",".",".","_",".",".",".",".",".",".",".","|","|",4],[".",".",".",".",".","_",".",".",5,7,".","_",".",".",".",".",2,4,".","_",".",".",".",".",".","_",".",".",5,7,".","_",".",".",".",".",2,4,".","|","|","."],[0,2,4,4,5,"_",5,8,".",".",4,"_",4,2,2,5,".",".",2,"_",5,2,4,4,5,"_",5,8,".",".",4,"_",4,2,2,5,".",".",2,"|","|","."],[".",".",".",".",".","_",".",".",".",".",".","_",".",".",".",".",".",".",".","_",".",".",".",".",".","_",".",".",".",".",".","_",".",".",".",".",".",".",".","|","|","."]],[["|",".",".",".","_",".",".",".",".",".","_",".",".",".",".",".",".",".",4,"|","|","|",".",".",".","_",".",".",".",".",".","_",".",".",".",".",".",".",".","|","|"],["|",".",".",".","_",".",".",5,7,".","_",".",".",".",".",2,4,".",".","|","|","|",".",".",".","_",".",".",5,7,".","_",".",".",".",".",2,4,".","|","|"],["|",4,4,5,"_",5,8,".",".",4,"_",4,2,2,5,".",".",2,".","|","|","|",4,4,5,"_",5,8,".",".",4,"_",4,2,2,5,".",".",2,"|","|"],["|",".",".",".","_",".",".",".",".",".","_",".",".",".",".",".",".",".",".","|","|","|",".",".",".","_",".",".",".",".",".","_",".",".",".",".",".",".",".","|","|"]]],"numberofstrings":4,"notes":["G","D","A","E"],"capo":0,"stringnotes":["G2","D2","A1","E1"],"comments":["Intro","1","2","Stave 4:"],"timing":[["W","W",null,"W","W","W","W","W",null,"W","W","W","W","W","W","W",null,"W","W",null,"W","W","W","W","W",null,"W","W","W","W","W","W","W"],["W","W","W","W","W",null,"W","W","W","W","W",null,"W","W","W","W","W","W","W",null,"W","W","W","W","W","W",null,"W","W","W","W","W",null,"W","W","W","W","W","W","W","W","W","W","W"],["W","W","W","W","W",null,"W","W","W","W","W",null,"W","W","W","W","W","W","W",null,"W","W","W","W","W",null,"W","W","W","W","W",null,"W","W","W","W","W","W","W",null,null,"W","W"],[null,"W","W","W",null,"W","W","W","W","W",null,"W","W","W","W","W","W","W","W",null,null,null,"W","W","W",null,"W","W","W","W","W",null,"W","W","W","W","W","W","W"]],"timingvisible":false,"tabcounter":41,"stave":3,"totalstaves":4,"instrument":"4bass","selectedtuning":"4bass","version":"13"}

Member for

1 year 8 months
Submitted by MM420 on Sat, 2020-09-05 12:36