Foals - Syrups v2

Chords

01234567891011121314151617181920212223
E
B
G
D
A
E
B
0 1 2 3 4 5 6 7 8 9 10 11 12 13 14 15 16 17 18 19 20 21 22 23
(/) Slide Up  (\) Slide Down  (h) Hammer On  (p) Pull Off  (b) Bend (r) Release (v) Vibrato

Stave 1:

G|-----------------------------------------------------------------
D|-----------------------------------------------------------------
A|--12--12--10--12-------------------------------------------------
E|------------------10--10--8--10\5--10--8--10--8--8--10--8--10\5--

Stave 2:

G|----------------------------------------------------------------------
D|----------------------------------------------------------------------
A|--------------------------------------------------------7--8--10--10--
E|--5/8--10--8--10--8--10--8--10\7--5--10--10--8--10--10----------------

Stave 3:

G|--------------------------------------------------------------------
D|--------------------------------------------------------------------
A|--12--12--10--12-----------------------12--10--12-------------------
E|------------------10--10--10--8--10\5--------------10--10--8--10\5--

Stave 4:

G|-----------------------------------------------------------------------------
D|-----------------------------------------------------------------------------
A|--12--12--10--12-------------------------------------------------------------
E|------------------10--10--10--8--10\5--5/10--10--10--8--10--8--10--10--10\5--

Stave 5:

G|----------------------------------------------------------------
D|----------------------------------------------------------------
A|----------------------------------------------------------7--8--
E|--10--10--8--10--8--10--8--8--10\5--10--8--10--8--10--10--------

Stave 6:

G|------------------------------------------------------------------------------
D|------------------------------------------------------------------------------
A|--12--12--10--12---------------------8--12--12--10--12--------------7--8--10--
E|------------------10--10--10--8--10---------------------10--10--10------------

Stave 7:

G|--
D|--
A|--
E|--

							http://www.guitartabcreator.com
Instruments
{"strings":[[[".",".",".",".",".",".",".",".",".",".",".",".",".",".",".",".",".",".",".","."],[".",".",".",".",".",".",".",".",".",".",".",".",".",".",".",".",".",".",".","."],[12,12,10,12,".",".",".",".",".",".",".",".",".",".",".",".",".",".",".","."],[".",".",".",".",10,10,8,10,"\\",5,10,8,10,8,8,10,8,10,"\\",5]],[[".",".",".",".",".",".",".",".",".",".",".",".",".",".",".",".",".",".",".",".",".","."],[".",".",".",".",".",".",".",".",".",".",".",".",".",".",".",".",".",".",".",".",".","."],[".",".",".",".",".",".",".",".",".",".",".",".",".",".",".",".",".",".",7,8,10,10],[5,"/",8,10,8,10,8,10,8,10,"\\",7,5,10,10,8,10,10,".",".",".","."]],[[".",".",".",".",".",".",".",".",".",".",".",".",".",".",".",".",".",".",".","."],[".",".",".",".",".",".",".",".",".",".",".",".",".",".",".",".",".",".",".","."],[12,12,10,12,".",".",".",".",".",".",".",12,10,12,".",".",".",".",".","."],[".",".",".",".",10,10,10,8,10,"\\",5,".",".",".",10,10,8,10,"\\",5]],[[".",".",".",".",".",".",".",".",".",".",".",".",".",".",".",".",".",".",".",".",".",".",".","."],[".",".",".",".",".",".",".",".",".",".",".",".",".",".",".",".",".",".",".",".",".",".",".","."],[12,12,10,12,".",".",".",".",".",".",".",".",".",".",".",".",".",".",".",".",".",".",".","."],[".",".",".",".",10,10,10,8,10,"\\",5,5,"/",10,10,10,8,10,8,10,10,10,"\\",5]],[[".",".",".",".",".",".",".",".",".",".",".",".",".",".",".",".",".",".","."],[".",".",".",".",".",".",".",".",".",".",".",".",".",".",".",".",".",".","."],[".",".",".",".",".",".",".",".",".",".",".",".",".",".",".",".",".",7,8],[10,10,8,10,8,10,8,8,10,"\\",5,10,8,10,8,10,10,".","."]],[[".",".",".",".",".",".",".",".",".",".",".",".",".",".",".",".",".",".",".","."],[".",".",".",".",".",".",".",".",".",".",".",".",".",".",".",".",".",".",".","."],[12,12,10,12,".",".",".",".",".",8,12,12,10,12,".",".",".",7,8,10],[".",".",".",".",10,10,10,8,10,".",".",".",".",".",10,10,10,".",".","."]],[[],[],[],[]]],"numberofstrings":4,"notes":["G","D","A","E"],"capo":0,"stringnotes":["G2","D2","A1","E1"],"comments":["Stave 1:","Stave 2:","Stave 3:","Stave 4:","Stave 5:","Stave 6:","Stave 7:"],"timing":[["W","W","W","W","W","W","W","W","W",null,"W","W","W","W","W","W","W","W","W","W","W","W","W"],["W",null,"W","W","W","W","W","W","W","W",null,"W","W","W","W","W","W","W","W","W","W","W"],["W","W","W","W","W","W","W","W","W",null,"W","W","W","W","W","W","W","W",null,"W"],["W","W","W","W","W","W","W","W","W",null,"W","W",null,"W","W","W","W","W","W","W","W","W",null,"W"],["W","W","W","W","W","W","W","W","W",null,"W","W","W","W","W","W","W","W","W"],["W","W","W","W","W","W","W","W","W","W","W","W","W","W","W","W","W","W","W","W"],[]],"timingvisible":false,"tabcounter":0,"stave":6,"totalstaves":7,"instrument":"4bass","selectedtuning":"4bass","version":"13"}

Member for

1 year 8 months
Submitted by MM420 on Sun, 2020-09-27 14:03