Foals - Like Lightning

Chords

01234567891011121314151617181920212223
E
B
G
D
A
E
B
0 1 2 3 4 5 6 7 8 9 10 11 12 13 14 15 16 17 18 19 20 21 22 23
(/) Slide Up  (\) Slide Down  (h) Hammer On  (p) Pull Off  (b) Bend (r) Release (v) Vibrato

Intro / Chorus

G|-----------------------------------------------------------------------------------------------
D|-----------------------------------------------------------------------------------------------
A|--8--8------8------------8h12--10--10------8---------8h12--10--10------8--10-------------------
E|--------10-----10--8-------------------10-----10-------------------10---------8--10--8--10--8--

Intro / Chorus

G|--------------------------------------------------------------------------------
D|--------------------------------------------------------------------------------
A|-------------------------8------10-----8h12--10--8------8--------3--5--3--------
E|--10--10--10--10-----10-----10----------------------10-----8--------------3--1--

Verse

G|-------------------------------------------------------------------------------------
D|-------------------------------------------------------------------------------------
A|----------------------------------------3--3--3--3h5--5-----8--8--8--10--8--5-----3--
E|--1--1--1--1h3--3-----6--6--6--6--5--------------------------------------------------

Verse

G|--------------------------------------------------
D|--------------------------------------------------
A|--1--1--1--1--------------5--5--5--5--5--5--5--5--
E|--------------3--3--3--3--------------------------

							http://www.guitartabcreator.com
genre
Instruments
{"title":"Foals - Like Lightning","strings":[[[".",".",".",".",".",".","_",".",".",".",".",".",".",".",".","_",".",".",".",".",".",".",".",".",".",".",".",".","."],[".",".",".",".",".",".","_",".",".",".",".",".",".",".",".","_",".",".",".",".",".",".",".",".",".",".",".",".","."],[8,8,".",8,".",".","_",8,"h",12,10,10,".",8,".","_",8,"h",12,10,10,".",8,10,".",".",".",".","."],[".",".",10,".",10,8,"_",".",".",".",".",".",10,".",10,"_",".",".",".",".",".",10,".",".",8,10,8,10,8]],[[".",".",".",".","_",".",".",".",".","_",".",".",".",".",".",".",".",".","_",".",".",".",".","."],[".",".",".",".","_",".",".",".",".","_",".",".",".",".",".",".",".",".","_",".",".",".",".","."],[".",".",".",".","_",".",8,".",10,"_",8,"h",12,10,8,".",8,".","_",3,5,3,".","."],[10,10,10,10,"_",10,".",10,".","_",".",".",".",".",".",10,".",8,"_",".",".",".",3,1]],[[".",".",".",".",".",".",".","_",".",".",".",".",".","_",".",".",".",".",".",".",".","_",".",".",".",".",".",".","_","."],[".",".",".",".",".",".",".","_",".",".",".",".",".","_",".",".",".",".",".",".",".","_",".",".",".",".",".",".","_","."],[".",".",".",".",".",".",".","_",".",".",".",".",".","_",3,3,3,3,"h",5,5,"_",8,8,8,10,8,5,"_",3],[1,1,1,1,"h",3,3,"_",6,6,6,6,5,"_",".",".",".",".",".",".",".","_",".",".",".",".",".",".","_","."]],[[".",".",".",".",".",".",".",".",".",".",".",".",".",".",".","."],[".",".",".",".",".",".",".",".",".",".",".",".",".",".",".","."],[1,1,1,1,".",".",".",".",5,5,5,5,5,5,5,5],[".",".",".",".",3,3,3,3,".",".",".",".",".",".",".","."]]],"numberofstrings":4,"notes":["G","D","A","E"],"capo":0,"stringnotes":["G2","D2","A1","E1"],"comments":["Intro / Chorus","Intro / Chorus","Verse","Verse"],"timing":[["W","W","W","W","W","W",null,"W",null,"W","W","W","W","W","W",null,"W",null,"W","W","W","W","W","W","W","W","W","W","W"],["W","W","W","W","W","W","W","W","W",null,"W",null,"W","W","W","W","W","W",null,"W","W","W","W","W","W"],["W","W","W","W",null,"W","W",null,"W","W","W","W","W",null,"W","W","W","W",null,"W","W",null,"W","W","W","W","W","W","W","W"],["W","W","W","W","W","W","W","W","W","W","W","W","W","W","W","W"]],"timingvisible":false,"tabcounter":16,"stave":3,"totalstaves":4,"instrument":"4bass","selectedtuning":"4bass_standard","version":"13"}

Member for

1 year 8 months
Submitted by MM420 on Sat, 2019-10-19 11:24