FKJ - Go Back Home (live at Salar de Uyuni)

Chords

01234567891011121314151617181920212223
E
B
G
D
A
E
B
0 1 2 3 4 5 6 7 8 9 10 11 12 13 14 15 16 17 18 19 20 21 22 23
(/) Slide Up  (\) Slide Down  (h) Hammer On  (p) Pull Off  (b) Bend (r) Release (v) Vibrato

Stave 1:

G|-------------------------------------|-------------------
D|-------------------------6-----------|-----6/8-----8--6--
A|--0/6--6--9--6--6--6--9--------------|----------9--------
E|----------------------------4--4--4--|--4----------------

Stave 2:

G|--------------------6/8--6/8-----|-----|--|-----------------------------------------------------------
D|-----------6/8--11---------------|-----|--|-----6-----------------------------------------------------
A|--6--6--6------------------------|-----|--|--6-----------3------------------8-----------------13--11--
E|------------------------------4--|--4--|--|--------4--4-----8--8--8--8--11-----8--8--8--8--8----------

							http://www.guitartabcreator.com
Instruments
{"strings":[[[".",".",".",".",".",".",".",".",".",".",".",".",".","|",".",".",".",".",".",".","."],[".",".",".",".",".",".",".",".",".",6,".",".",".","|",".",6,"/",8,".",8,6],[0,"/",6,6,9,6,6,6,9,".",".",".",".","|",".",".",".",".",9,".","."],[".",".",".",".",".",".",".",".",".",".",4,4,4,"|",4,".",".",".",".",".","."]],[[".",".",".",".",".",".",".",6,"/",8,6,"/",8,".","|",".","|","|",".",".",".",".",".",".",".",".",".",".",".",".",".",".",".",".",".","."],[".",".",".",6,"/",8,11,".",".",".",".",".",".",".","|",".","|","|",".",6,".",".",".",".",".",".",".",".",".",".",".",".",".",".",".","."],[6,6,6,".",".",".",".",".",".",".",".",".",".",".","|",".","|","|",6,".",".",".",3,".",".",".",".",".",8,".",".",".",".",".",13,11],[".",".",".",".",".",".",".",".",".",".",".",".",".",4,"|",4,"|","|",".",".",4,4,".",8,8,8,8,11,".",8,8,8,8,8,".","."]]],"numberofstrings":4,"notes":["G","D","A","E"],"capo":0,"stringnotes":["G2","D2","A1","E1"],"comments":["Stave 1:","Stave 2:"],"timing":[["W",null,"W","W","W","W","W","W","W","W","W","W","W",null,"W","W","W","W","W","W","W"],["W","W","W","W",null,"W","W","W",null,"W","W",null,"W","W",null,"W",null,null,"W","W","W","W","W","W","W","W","W","W","W","W","W","W","W","W","W","W"]],"timingvisible":false,"tabcounter":36,"stave":1,"totalstaves":2,"instrument":"4bass","selectedtuning":"4bass","version":"13"}

Member for

1 year 8 months
Submitted by MM420 on Sun, 2020-09-13 05:46