Scandal Of Grace (G)

Chords

01234567891011121314151617181920212223
E
B
G
D
A
E
B
0 1 2 3 4 5 6 7 8 9 10 11 12 13 14 15 16 17 18 19 20 21 22 23
(/) Slide Up  (\) Slide Down  (h) Hammer On  (p) Pull Off  (b) Bend (r) Release (v) Vibrato

Stave 1:

E|--7--10--2--10--12--
B|--------------------
G|--------------------
D|--------------------
A|--------------------
E|--------------------

Stave 2:

E|-----------------------------------
B|-----------------------------------
G|--4--2--4--0--7-----4--2--4--0--7--
D|-----------------------------------
A|-----------------------------------
E|-----------------------------------

Stave 3:

E|--10--12--------------
B|----------1--3--1--3--
G|----------------------
D|----------------------
A|----------------------
E|----------------------

Stave 4:

E|--------------------
B|--3--5--3--3--5--3--
G|--4--5--4--4--5--4--
D|--4--5--5--4--5--5--
A|--------------------
E|--------------------

Stave 5:

E|--------------------------8--
B|--7--7--8--8--8---8---8---8--
G|--7--7--9--9--9---9---9---5--
D|--7--7--9--9--10--10--10--5--
A|-----------------------------
E|-----------------------------

							http://www.guitartabcreator.com
Instruments
{"strings":[[[7,10,2,10,12],[".",".",".",".","."],[".",".",".",".","."],[".",".",".",".","."],[".",".",".",".","."],[".",".",".",".","."]],[[".",".",".",".",".","_",".",".",".",".","."],[".",".",".",".",".","_",".",".",".",".","."],[4,2,4,0,7,"_",4,2,4,0,7],[".",".",".",".",".","_",".",".",".",".","."],[".",".",".",".",".","_",".",".",".",".","."],[".",".",".",".",".","_",".",".",".",".","."]],[[10,12,".",".",".","."],[".",".",1,3,1,3],[".",".",".",".",".","."],[".",".",".",".",".","."],[".",".",".",".",".","."],[".",".",".",".",".","."]],[[".",".",".",".",".","."],[3,5,3,3,5,3],[4,5,4,4,5,4],[4,5,5,4,5,5],[".",".",".",".",".","."],[".",".",".",".",".","."]],[[".",".",".",".",".",".",".",8],[7,7,8,8,8,8,8,8],[7,7,9,9,9,9,9,5],[7,7,9,9,10,10,10,5],[".",".",".",".",".",".",".","."],[".",".",".",".",".",".",".","."]]],"numberofstrings":6,"notes":["E","B","G","D","A","E","B"],"capo":0,"stringnotes":["E4","B3","G3","D3","A2","E2"],"comments":["Stave 1:","Stave 2:","Stave 3:","Stave 4:","Stave 5:"],"timing":[["X","X","X","X","X"],["X","X","X","X","X",null,"X","X","X","X","X"],["X","X","X","X","X","X"],["X","X","X","X","X","X"],["X","X","X","X","X","X","X","X"]],"timingvisible":false,"tabcounter":7,"stave":4,"totalstaves":5,"instrument":"6guitar","selectedtuning":"6_standard","version":"13"}

Member for

2 years 8 months
Submitted by mkopec on Sun, 2020-10-18 19:20