One Thing Remains - Key of E

Chords
01234567891011121314151617181920212223
E
B
G
D
A
E
B
0 1 2 3 4 5 6 7 8 9 10 11 12 13 14 15 16 17 18 19 20 21 22 23
(/) Slide Up  (\) Slide Down  (h) Hammer On  (p) Pull Off  (b) Bend (r) Release (v) Vibrato

Stave 1:

E|--------------------------------------------------
B|--------5-----------5-----------4-----5-----4-----
G|-----6-----6--6--4-----4-----4-----4-----4-----6--
D|--7-----------------------4-----------------------
A|--------------------------------------------------
E|--------------------------------------------------

Stave 2:

E|--------------------------------------------------------------
B|--------5-----------5-----------5-----------4-----5-----4-----
G|-----6-----6-----6-----6-----4-----4-----4-----4-----4-----4--
D|--6-----------7-----------6-----------4-----------------------
A|--------------------------------------------------------------
E|--------------------------------------------------------------

							http://www.guitartabcreator.com
Tab Notes

Capo 2

Instruments
{"title":"One Thing Remains - Key of E","strings":[[[".",".",".",".",".",".",".",".",".",".",".",".",".",".",".","."],[".",".",5,".",".",".",5,".",".",".",4,".",5,".",4,"."],[".",6,".",6,6,4,".",4,".",4,".",4,".",4,".",6],[7,".",".",".",".",".",".",".",4,".",".",".",".",".",".","."],[".",".",".",".",".",".",".",".",".",".",".",".",".",".",".","."],[".",".",".",".",".",".",".",".",".",".",".",".",".",".",".","."]],[[".",".",".",".",".",".",".",".",".",".",".",".",".",".",".",".",".",".",".","."],[".",".",5,".",".",".",5,".",".",".",5,".",".",".",4,".",5,".",4,"."],[".",6,".",6,".",6,".",6,".",4,".",4,".",4,".",4,".",4,".",4],[6,".",".",".",7,".",".",".",6,".",".",".",4,".",".",".",".",".",".","."],[".",".",".",".",".",".",".",".",".",".",".",".",".",".",".",".",".",".",".","."],[".",".",".",".",".",".",".",".",".",".",".",".",".",".",".",".",".",".",".","."]]],"numberofstrings":6,"notes":["E","B","G","D","A","E","B"],"capo":0,"stringnotes":["E4","B3","G3","D3","A2","E2"],"comments":["Stave 1:","Stave 2:"],"timing":[["W","W","W","W","W","W","W","W","W","W","W","W","W","W","W","W"],["W","W","W","W","W","W","W","W","W","W","W","W","W","W","W","W","W","W","W","W"]],"timingvisible":false,"tabcounter":20,"stave":1,"totalstaves":2,"instrument":"6guitar","selectedtuning":"6_standard","version":"13"}

Member for

2 years 3 months
Submitted by mkopec on Wed, 2018-08-08 20:12