Living Hope -A

Chords

01234567891011121314151617181920212223
E
B
G
D
A
E
B
0 1 2 3 4 5 6 7 8 9 10 11 12 13 14 15 16 17 18 19 20 21 22 23
(/) Slide Up  (\) Slide Down  (h) Hammer On  (p) Pull Off  (b) Bend (r) Release (v) Vibrato

Stave 1:

E|---------------------
B|-------------17--15--
G|--14-----14----------
D|---------------------
A|---------------------
E|---------------------

Stave 2:

E|--------------------------------------------------------
B|------15--14-----------------15--14---------------------
G|--------------14--13-----------------14--13-----14--16--
D|--16---------------------16-----------------------------
A|--------------------------------------------------------
E|--------------------------------------------------------

							http://www.guitartabcreator.com
Instruments
{"title":"Living Hope -A","strings":[[[".","_",".",".","."],[".","_",".",17,15],[14,"_",14,".","."],[".","_",".",".","."],[".","_",".",".","."],[".","_",".",".","."]],[[".",".",".",".",".","_",".",".",".",".",".","_",".","."],[".",15,14,".",".","_",".",15,14,".",".","_",".","."],[".",".",".",14,13,"_",".",".",".",14,13,"_",14,16],[16,".",".",".",".","_",16,".",".",".",".","_",".","."],[".",".",".",".",".","_",".",".",".",".",".","_",".","."],[".",".",".",".",".","_",".",".",".",".",".","_",".","."]]],"numberofstrings":6,"notes":["E","B","G","D","A","E","B"],"capo":0,"stringnotes":["E4","B3","G3","D3","A2","E2"],"comments":["Stave 1:","Stave 2:","Stave 3:"],"timing":[["W",null,"W","W","W"],["W","W","W","W","W",null,"W","W","W","W","W",null,"W","W"]],"timingvisible":false,"tabcounter":14,"stave":1,"totalstaves":2,"instrument":"6guitar","selectedtuning":"6_standard","version":"13"}

Member for

2 years 4 months
Submitted by mkopec on Thu, 2019-06-27 06:21