At The Cross _C

Chords

01234567891011121314151617181920212223
E
B
G
D
A
E
B
0 1 2 3 4 5 6 7 8 9 10 11 12 13 14 15 16 17 18 19 20 21 22 23
(/) Slide Up  (\) Slide Down  (h) Hammer On  (p) Pull Off  (b) Bend (r) Release (v) Vibrato

Stave 1:

E|--------------------------
B|--5--7--9-----------------
G|--------------------------
D|-----------9--11--13--11--
A|--------------------------
E|--------------------------

Stave 2:

E|--5-----5--5--4--------------5--5--4-----------------------7--
B|--5--------------7--5-----------------7--5--------5-----5-----
G|--6--------------------6--------------------6--------4--------
D|--7-----------------------------------------------------------
A|--------------------------------------------------------------
E|--------------------------------------------------------------

Stave 3:

E|--17--17--17--16--14----------17--17--16--14----------------------19--
B|----------------------17--14------------------17--14--17------17------
G|----------------------------------------------------------16----------
D|----------------------------------------------------------------------
A|----------------------------------------------------------------------
E|----------------------------------------------------------------------

Stave 4:

E|--5/12--9--12--7--12--10--
B|--------------------------
G|--------------------------
D|--------------------------
A|--------------------------
E|--------------------------

							http://www.guitartabcreator.com
Instruments
{"title":"At The Cross _C","strings":[[[".",".",".",".",".",".","."],[5,7,9,".",".",".","."],[".",".",".",".",".",".","."],[".",".",".",9,11,13,11],[".",".",".",".",".",".","."],[".",".",".",".",".",".","."]],[[5,"_",5,5,4,".",".",".","_",5,5,4,".",".",".","_",".",".",".",7],[5,"_",".",".",".",7,5,".","_",".",".",".",7,5,".","_",5,".",5,"."],[6,"_",".",".",".",".",".",6,"_",".",".",".",".",".",6,"_",".",4,".","."],[7,"_",".",".",".",".",".",".","_",".",".",".",".",".",".","_",".",".",".","."],[".","_",".",".",".",".",".",".","_",".",".",".",".",".",".","_",".",".",".","."],[".","_",".",".",".",".",".",".","_",".",".",".",".",".",".","_",".",".",".","."]],[[17,17,17,16,14,".",".",17,17,16,14,".",".",".",".",".",19],[".",".",".",".",".",17,14,".",".",".",".",17,14,17,".",17,"."],[".",".",".",".",".",".",".",".",".",".",".",".",".",".",16,".","."],[".",".",".",".",".",".",".",".",".",".",".",".",".",".",".",".","."],[".",".",".",".",".",".",".",".",".",".",".",".",".",".",".",".","."],[".",".",".",".",".",".",".",".",".",".",".",".",".",".",".",".","."]],[[5,"/",12,9,12,7,12,10],[".",".",".",".",".",".",".","."],[".",".",".",".",".",".",".","."],[".",".",".",".",".",".",".","."],[".",".",".",".",".",".",".","."],[".",".",".",".",".",".",".","."]]],"numberofstrings":6,"notes":["E","B","G","D","A","E","B"],"capo":0,"stringnotes":["E4","B3","G3","D3","A2","E2"],"comments":["Stave 1:","Stave 2:","Stave 3:","Stave 4:","Stave 5:"],"timing":[["W","W","W","W","W","W","W"],["W","W","W","W","W","W",null,"W","W","W","W","W"],["W","W","W","W","W","W","W","W","W","W","W","W","W","W","W","W","W"],["W",null,"W","W","W","W","W","W"],["W","W","W","W","W","W","W","W","W",null,"W","W","W","W","W","W",null,"W","W","W","W"]],"timingvisible":false,"tabcounter":8,"stave":3,"totalstaves":4,"instrument":"6guitar","selectedtuning":"6_standard","version":"13"}

Member for

2 years 4 months
Submitted by mkopec on Thu, 2019-09-26 05:21