Track 1

Chords

01234567891011121314151617181920212223
E
B
G
D
A
E
B
0 1 2 3 4 5 6 7 8 9 10 11 12 13 14 15 16 17 18 19 20 21 22 23
(/) Slide Up  (\) Slide Down  (h) Hammer On  (p) Pull Off  (b) Bend (r) Release (v) Vibrato

Stave 1:

E|-----------------------5-----------------------5-----------------------5--------------------
B|-----3-----3-----3-----------3-----3-----3-----------3-----3-----3-----------3-----3-----3--
G|--------------------------------------------------------------------------------------------
D|--5-----5-----5-----5-----5-----5-----5-----5-----5-----5-----5-----5-----5-----5-----5-----
A|--------------------------------------------------------------------------------------------
E|--------------------------------------------------------------------------------------------

Stave 2:

E|--------------------------------------------------------------------------------------
B|--------------------------------------------------------------------------------------
G|-----------------------5--------------------5--------------------5--------------------
D|-----3-----3-----3--------3-----3-----3--------3-----3-----3--------3-----3-----3-----
A|--5-----5-----5-----5--------5-----5-----5--------5-----5-----5--------5-----5-----5--
E|--------------------------------------------------------------------------------------

							http://www.guitartabcreator.com
genre
Instruments
{"title":"Track 1","strings":[[[".",".",".",".",".",".",".",5,".",".",".",".",".",".",".",5,".",".",".",".",".",".",".",5,".",".",".",".",".","."],[".",3,".",3,".",3,".",".",".",3,".",3,".",3,".",".",".",3,".",3,".",3,".",".",".",3,".",3,".",3],[".",".",".",".",".",".",".",".",".",".",".",".",".",".",".",".",".",".",".",".",".",".",".",".",".",".",".",".",".","."],[5,".",5,".",5,".",5,".",5,".",5,".",5,".",5,".",5,".",5,".",5,".",5,".",5,".",5,".",5,"."],[".",".",".",".",".",".",".",".",".",".",".",".",".",".",".",".",".",".",".",".",".",".",".",".",".",".",".",".",".","."],[".",".",".",".",".",".",".",".",".",".",".",".",".",".",".",".",".",".",".",".",".",".",".",".",".",".",".",".",".","."]],[[".",".",".",".",".",".",".",".",".",".",".",".",".",".",".",".",".",".",".",".",".",".",".",".",".",".",".","."],[".",".",".",".",".",".",".",".",".",".",".",".",".",".",".",".",".",".",".",".",".",".",".",".",".",".",".","."],[".",".",".",".",".",".",".",5,".",".",".",".",".",".",5,".",".",".",".",".",".",5,".",".",".",".",".","."],[".",3,".",3,".",3,".",".",3,".",3,".",3,".",".",3,".",3,".",3,".",".",3,".",3,".",3,"."],[5,".",5,".",5,".",5,".",".",5,".",5,".",5,".",".",5,".",5,".",5,".",".",5,".",5,".",5],[".",".",".",".",".",".",".",".",".",".",".",".",".",".",".",".",".",".",".",".",".",".",".",".",".",".",".","."]]],"numberofstrings":6,"notes":["E","B","G","D","A","E","B"],"capo":0,"stringnotes":["E4","B3","G3","D3","A2","E2"],"comments":["Stave 1:","Stave 2:"],"timing":[["W","W","W","W","W","W","W","W","W","W","W","W","W","W","W","W","W","W","W","W","W","W","W","W","W","W","W","W","W","W","W","W","W","W","W","W"],["W","W","W","W","W","W","W","W","W","W","W","W","W","W","W","W","W","W","W","W","W","W","W","W","W","W","W","W","W","W","W"]],"timingvisible":false,"tabcounter":28,"stave":1,"totalstaves":2,"instrument":"6guitar","selectedtuning":"6_standard","version":"13"}

Member for

8 months 3 weeks
Submitted by MJLoko on Mon, 2019-09-09 15:33