Once Upon The Cross

Chords

01234567891011121314151617181920212223
E
B
G
D
A
E
B
0 1 2 3 4 5 6 7 8 9 10 11 12 13 14 15 16 17 18 19 20 21 22 23
(/) Slide Up  (\) Slide Down  (h) Hammer On  (p) Pull Off  (b) Bend (r) Release (v) Vibrato

Opening Chords

E|--------------------
B|--------------------
G|--------------------
D|--------------------
A|--2--1--1--2--2-----
E|--2--1--1--0--0-----

Intro Riff

E|------------------------------------------------------------------------------------------------------------------------------------------------------------------------------------------------------------------------------------------------------------------------------------------------------------------------------------------------------------------------------
B|------------------------------------------------------------------------------------------------------------------------------------------------------------------------------------------------------------------------------------------------------------------------------------------------------------------------------------------------------------------------------
G|------------------------------------------------------------------------------------------------------------------------------------------------------------------------------------------------------------------------------------------------------------------------------------------------------------------------------------------------------------------------------
D|--2--2--2--2--1--1--1--1-------------------------------------------------------------------------------------------------1--1--1--1--0--0--0--0-------------------------------------------------------------------2--2--2--2--1--1--1--1-------------------------------------------------------------------------------------------------1--1--1--1--0--0--0--0---------------
A|--------------------------2--2--2--2--1--1--1--1-------------------------------------------------1--1--1--1--0--0--0--0-------------------------------------------------------------------------------------------------------------------2--2--2--2--1--1--1--1-------------------------------------------------1--1--1--1--0--0--0--0-------------------------2--1--1--2--2-
E|--------------------------------------------------2--2--2--2--1--1--1--1--1--1--1--1--0--0--0--0-------------------------------------------------2--2--2--2--1--1--1--1--1--1--1--1--0--0--0--0--0--0--0--0-------------------------------------------------------2--2--2--2--1--1--1--1--1--1--1--1--0--0--0--0------------------------------------------------2--1--1--0--0-

Pre Vs

E|------------------------------------------------------------------------------------------------------------------------------------------------------------------
B|------------------------------------------------------------------------------------------------------------------------------------------------------------------
G|------------------------------------------------------------------------------------------------------------------------------------------------------------------
D|------------------------------------------------------------------------------------------------------------------------------------------------------------------
A|--------------2h3--------------1h2--------------2h3--------2--3--0--1-------------2h3--------------1h2--------------2h3--------2--3--0--1--------0--1-------------
E|--0--2--3--2-------0--2--3--1-------0--2--3--2-------0--2-------------0--2-----2-------0--2--3--1-------0--2--3--2-------0--2--------------0--2-------x--2--------

Verse

E|----------------------------------------------------------------------------------------------------------------------------------------------------------------------------
B|----------------------------------------------------------------------------------------------------------------------------------------------------------------------------
G|----------------------------------------------------------------------------------------------------------------------------------------------------------------------------
D|----------------------------------------------------------------------------------------------------------------------------------------------------------------------------
A|-------------------------------------------------------------------------------------1----------------------------------------3----------------------------------------4----
E|-----1--1--1--1--1--1--1--0-----0-----1--4-1--1--1--1--1--1--1--1--0-----0--------1----1--1--1--1--1--1--1--1--0-----0-----1----1--1--1--1--1--1--1--1--0-----0-----1-------

Pre Chorus

E|----------------------------------------------------------------------------------------------------------------------------
B|----------------------------------------------------------------------------------------------------------------------------
G|----------------------------------------------------------------------------------------------------------------------------
D|----------------------------------------------------------------------------------------------------------------------------
A|--------------------------2--2--2--2--5--5--5--5--------------3--3--3--3--3--3--3--3--3--3--3--3----------------------------
E|--0--0--0--0--2--2--2--2--------------------------4--4--4--4-------------------------------------0--0--0--0--2--2--2--2-----

							http://www.guitartabcreator.com
Instruments
{"strings":[[[".",".",".",".",".","."],[".",".",".",".",".","."],[".",".",".",".",".","."],[".",".",".",".",".","."],[2,1,1,2,2,"."],[2,1,1,0,0,"."]],[[".",".",".",".",".",".",".",".",".",".",".",".",".",".",".",".",".",".",".",".",".",".",".",".",".",".",".",".",".",".",".",".","/",".",".",".",".",".",".",".",".",".",".",".",".",".",".",".",".",".",".",".",".",".",".",".",".",".",".",".",".",".",".",".",".",".",".",".",".","/",".",".",".",".",".",".",".",".",".",".",".",".",".",".",".",".",".",".",".",".",".",".",".",".",".",".",".",".",".",".",".",".",".",".","/",".",".",".",".",".",".",".",".",".",".",".",".",".",".",".",".","/",".",".",".",".",".","/"],[".",".",".",".",".",".",".",".",".",".",".",".",".",".",".",".",".",".",".",".",".",".",".",".",".",".",".",".",".",".",".",".","/",".",".",".",".",".",".",".",".",".",".",".",".",".",".",".",".",".",".",".",".",".",".",".",".",".",".",".",".",".",".",".",".",".",".",".",".","/",".",".",".",".",".",".",".",".",".",".",".",".",".",".",".",".",".",".",".",".",".",".",".",".",".",".",".",".",".",".",".",".",".",".","/",".",".",".",".",".",".",".",".",".",".",".",".",".",".",".",".","/",".",".",".",".",".","/"],[".",".",".",".",".",".",".",".",".",".",".",".",".",".",".",".",".",".",".",".",".",".",".",".",".",".",".",".",".",".",".",".","/",".",".",".",".",".",".",".",".",".",".",".",".",".",".",".",".",".",".",".",".",".",".",".",".",".",".",".",".",".",".",".",".",".",".",".",".","/",".",".",".",".",".",".",".",".",".",".",".",".",".",".",".",".",".",".",".",".",".",".",".",".",".",".",".",".",".",".",".",".",".",".","/",".",".",".",".",".",".",".",".",".",".",".",".",".",".",".",".","/",".",".",".",".",".","/"],[2,2,2,2,1,1,1,1,".",".",".",".",".",".",".",".",".",".",".",".",".",".",".",".",".",".",".",".",".",".",".",".","/",".",".",".",".",".",".",".",".",1,1,1,1,0,0,0,0,".",".",".",".",".",".",".",".",".",".",".",".",".",".",".",".",".",".",".",".","/",".",".",2,2,2,2,1,1,1,1,".",".",".",".",".",".",".",".",".",".",".",".",".",".",".",".",".",".",".",".",".",".",".",".","/",".",".",".",".",".",".",".",".",1,1,1,1,0,0,0,0,"/",".",".",".",".",".","/"],[".",".",".",".",".",".",".",".",2,2,2,2,1,1,1,1,".",".",".",".",".",".",".",".",".",".",".",".",".",".",".",".","/",1,1,1,1,0,0,0,0,".",".",".",".",".",".",".",".",".",".",".",".",".",".",".",".",".",".",".",".",".",".",".",".",".",".",".",".","/",".",".",".",".",".",".",".",".",".",".",2,2,2,2,1,1,1,1,".",".",".",".",".",".",".",".",".",".",".",".",".",".",".",".","/",1,1,1,1,0,0,0,0,".",".",".",".",".",".",".",".","/",2,1,1,2,2,"/"],[".",".",".",".",".",".",".",".",".",".",".",".",".",".",".",".",2,2,2,2,1,1,1,1,1,1,1,1,0,0,0,0,"/",".",".",".",".",".",".",".",".",".",".",".",".",".",".",".",".",2,2,2,2,1,1,1,1,1,1,1,1,0,0,0,0,0,0,0,0,"/",".",".",".",".",".",".",".",".",".",".",".",".",".",".",".",".",".",".",2,2,2,2,1,1,1,1,1,1,1,1,0,0,0,0,"/",".",".",".",".",".",".",".",".",".",".",".",".",".",".",".",".","/",2,1,1,0,0,"/"]],[[".",".",".",".",".",".",".",".",".",".",".",".",".",".",".",".",".",".",".",".",".",".",".",".",".",".",".","/",".",".","_",".",".",".",".",".",".",".",".",".",".",".",".",".",".",".",".",".",".",".",".",".",".",".",".",".",".",".",".","/",".",".",".","."],[".",".",".",".",".",".",".",".",".",".",".",".",".",".",".",".",".",".",".",".",".",".",".",".",".",".",".","/",".",".","_",".",".",".",".",".",".",".",".",".",".",".",".",".",".",".",".",".",".",".",".",".",".",".",".",".",".",".",".","/",".",".",".","."],[".",".",".",".",".",".",".",".",".",".",".",".",".",".",".",".",".",".",".",".",".",".",".",".",".",".",".","/",".",".","_",".",".",".",".",".",".",".",".",".",".",".",".",".",".",".",".",".",".",".",".",".",".",".",".",".",".",".",".","/",".",".",".","."],[".",".",".",".",".",".",".",".",".",".",".",".",".",".",".",".",".",".",".",".",".",".",".",".",".",".",".","/",".",".","_",".",".",".",".",".",".",".",".",".",".",".",".",".",".",".",".",".",".",".",".",".",".",".",".",".",".",".",".","/",".",".",".","."],[".",".",".",".",2,"h",3,".",".",".",".",1,"h",2,".",".",".",".",2,"h",3,".",".",2,3,0,1,"/",".",".","_",".",2,"h",3,".",".",".",".",1,"h",2,".",".",".",".",2,"h",3,".",".",2,3,0,1,".",".",0,1,"/",".",".",".","."],[0,2,3,2,".",".",".",0,2,3,1,".",".",".",0,2,3,2,".",".",".",0,2,".",".",".",".","/",0,2,"_",2,".",".",".",0,2,3,1,".",".",".",0,2,3,2,".",".",".",0,2,".",".",".",".",0,2,".",".","/","x",2,".","."]],[[".",".",".",".",".",".",".",".",".",".",".",".",".",".","/",".",".",".",".",".",".",".",".",".",".",".",".",".",".",".","/",".",".",".",".",".",".",".",".",".",".",".",".",".",".","/",".",".",".",".",".",".",".",".",".",".",".",".",".",".","/","."],[".",".",".",".",".",".",".",".",".",".",".",".",".",".","/",".",".",".",".",".",".",".",".",".",".",".",".",".",".",".","/",".",".",".",".",".",".",".",".",".",".",".",".",".",".","/",".",".",".",".",".",".",".",".",".",".",".",".",".",".","/","."],[".",".",".",".",".",".",".",".",".",".",".",".",".",".","/",".",".",".",".",".",".",".",".",".",".",".",".",".",".",".","/",".",".",".",".",".",".",".",".",".",".",".",".",".",".","/",".",".",".",".",".",".",".",".",".",".",".",".",".",".","/","."],[".",".",".",".",".",".",".",".",".",".",".",".",".",".","/",".",".",".",".",".",".",".",".",".",".",".",".",".",".",".","/",".",".",".",".",".",".",".",".",".",".",".",".",".",".","/",".",".",".",".",".",".",".",".",".",".",".",".",".",".","/","."],[".",".",".",".",".",".",".",".",".",".",".",".",".",".","/",".",".",".",".",".",".",".",".",".",".",".",".",".",".",1,"/",".",".",".",".",".",".",".",".",".",".",".",".",".",3,"/",".",".",".",".",".",".",".",".",".",".",".",".",".",4,"/","."],[".",1,1,1,1,1,1,1,0,".",0,".",1,4,"/",1,1,1,1,1,1,1,1,0,".",0,".",".",1,".","/",1,1,1,1,1,1,1,1,0,".",0,".",1,".","/",1,1,1,1,1,1,1,1,0,".",0,".",1,".","/","."]],[[".",".",".",".",".",".",".",".",".",".",".",".",".",".",".",".",".",".",".",".",".",".",".",".",".",".",".",".",".",".",".",".","/",".",".",".",".",".",".",".",".","."],[".",".",".",".",".",".",".",".",".",".",".",".",".",".",".",".",".",".",".",".",".",".",".",".",".",".",".",".",".",".",".",".","/",".",".",".",".",".",".",".",".","."],[".",".",".",".",".",".",".",".",".",".",".",".",".",".",".",".",".",".",".",".",".",".",".",".",".",".",".",".",".",".",".",".","/",".",".",".",".",".",".",".",".","."],[".",".",".",".",".",".",".",".",".",".",".",".",".",".",".",".",".",".",".",".",".",".",".",".",".",".",".",".",".",".",".",".","/",".",".",".",".",".",".",".",".","."],[".",".",".",".",".",".",".",".",2,2,2,2,5,5,5,5,".",".",".",".",3,3,3,3,3,3,3,3,3,3,3,3,"/",".",".",".",".",".",".",".",".","."],[0,0,0,0,2,2,2,2,".",".",".",".",".",".",".",".",4,4,4,4,".",".",".",".",".",".",".",".",".",".",".",".","/",0,0,0,0,2,2,2,2,"."]]],"numberofstrings":6,"notes":["E","B","G","D","A","E","B"],"capo":0,"stringnotes":["E4","B3","G3","D3","A2","E2"],"comments":["Opening Chords","Intro Riff","Pre Vs","Verse","Pre Chorus"],"timing":[["W",null,"W","W","W","W",null,"W","W","W","W","W","W","W","W",null,"W","W","W","W","W","W","W","W","W","W","W","W","W","W","W","W","W","W","W","W","W","W","W","W","W","W","W","W","W","W","W","W","W","W","W","W","W","W","W","W","W","W","W","W","W","W","W","W","W","W","W","W","W","W","W","W","W","W","W","W"],[null,null,null,null,null,null,null,null,null,null,null,null,null,null,null,null,null,null,null,null,null,null,null,null,null,null,null,null,null,null,null,null,null,null,null,null,null,"W",null,null,null,null,null,null,null,null,null,null,null,null,null,null,null,null,null,null,null,null,null,null,null,null,null,null,"W",null,null,null,null,null,null,"W",null,null,null,null,null,null,null,null,null,null,null,null,null,null,null,null,null,null,null,null,null,null,null,null,null,null,null,null,null,null,null,null,null,null,null,null,null,null,null,null,null,null,null,null,null,null,null,null,null,null,"W","W","W","W","W"],[null,"W","W","W","W","W","W","W","W","W","W","W","W",null,"W","W","W","W","W","W",null,"W","W","W","W","W","W","W",null,"W","W","W","W","W",null,"W",null,null,null,null,null,null,null,null,null,null,null,null,null,null,null,null,null,null,null,null,"W","W","W","W",null,null,"W"],[null,"W","W","W","W","W","W","W","W","W",null,"W",null,"W","W",null,null,null,null,null,null,null,null,null,null,null,null,null,null,"W",null,null,"W","W","W","W","W","W","W","W","W",null,"W",null,"W","W",null,null,"W","W","W","W","W","W","W","W",null,"W",null,"W","W"],[null,null,null,"W","W","W","W","W","W","W","W","W","W","W","W","W","W","W","W","W","W","W","W","W","W","W","W","W","W","W","W","W","W",null,"W","W","W","W","W","W","W","W"]],"timingvisible":false,"tabcounter":42,"stave":4,"totalstaves":5,"instrument":"6guitar","selectedtuning":"6_standard","version":"13"}

Member for

2 weeks 1 day
Submitted by MjC1980 on Sat, 2020-06-27 07:36