Sound will begin in 5 seconds

OLD BONES BLUES SOLO

Chords
01234567891011121314151617181920212223
E
B
G
D
A
E
B
0 1 2 3 4 5 6 7 8 9 10 11 12 13 14 15 16 17 18 19 20 21 22 23
Song Science #1: How Pros Use 6 Chords to Write Hit Songs
(/) Slide Up  (\) Slide Down  (h) Hammer On  (p) Pull Off  (b) Bend (r) Release (v) Vibrato

Stave 1:

E|-------------------------------------------------------------------------------
B|--12--12---------12--12------------------------------------8--10b12--10--8-----
G|--12--12---------12--12---------7-----7--8--9-----7--8--9-------------------9--
D|----------14-------------14--------9-------------------------------------------
A|-------------------------------------------------------------------------------
E|-------------------------------------------------------------------------------

Stave 2:

E|----------------------------------------------------------------------------------------
B|-----5--5-----5-----5-----7b9--7b9--5-----5-----5p3-----3-------------------------------
G|--6--------6-----6---------------------6-------------4-----4--2--4--3--2--2b3--0--------
D|----------------------------------------------------------------------------------2--2--
A|----------------------------------------------------------------------------------------
E|----------------------------------------------------------------------------------------

http://www.guitartabcreator.com
Guitar Tab Creator is intended to store guitar tab created through the tool. It currently does not support in-line text editing. Any text you place in here will be lost. If you need to comment on your tab, please use the "Tab Notes" section located below.