Sound will begin in 5 seconds

#9,000,000

Chords
01234567891011121314151617181920212223
E
B
G
D
A
E
B
0 1 2 3 4 5 6 7 8 9 10 11 12 13 14 15 16 17 18 19 20 21 22 23
Song Science #1: How Pros Use 6 Chords to Write Hit Songs
(/) Slide Up  (\) Slide Down  (h) Hammer On  (p) Pull Off  (b) Bend (r) Release (v) Vibrato

Capo Fret 5

Stave 1:

C|--4-----4-----------------4----------------------------------------------
G|-------------------------------------------------------------------------
G|--2--0--2--0--4-----4-----2--0-----0--0--4--0--5--0--7--7--0-0-0-0-0-----
C|--2--0--2--0--2--2--2--2--2--0-----0--2--0--2--0--2--0--0--7/5/4/2p0-----
G|-----0-----0-----2-----2-----0-----0--0--0--0--0--0--0--0--0-0-0-0-0-----
C|--x--0--x--0--2--x--2--x--x--0-----0--0--0--0--0--0--0--0--0-0-0-0-0-----

Stave 2:

C|------------
G|------------
G|--------10--
C|--7---------
G|-----8------
C|------------

http://www.guitartabcreator.com
Guitar Tab Creator is intended to store guitar tab created through the tool. It currently does not support in-line text editing. Any text you place in here will be lost. If you need to comment on your tab, please use the "Tab Notes" section located below.