Aientia Bass Tab

Chords

01234567891011121314151617181920212223
E
B
G
D
A
E
B
0 1 2 3 4 5 6 7 8 9 10 11 12 13 14 15 16 17 18 19 20 21 22 23
(/) Slide Up  (\) Slide Down  (h) Hammer On  (p) Pull Off  (b) Bend (r) Release (v) Vibrato

Stave 1:

Gb|-----------------7--6-------------------------------------------------------------------
Db|-----------------------7------------------------------11--9--7------7--9--11--12--------
Ab|--------------------------9--7--5--7----------------------------10----------------------
Db|--4--5--5--5--5-----------------------9--9--12--7--7------------------------------------

Stave 2:

Gb|-----------------------------------------------------------------------------------------------
Db|--------------------------------4--------------------------------------------------------------
Ab|-----------------------------5-----7--5--------------------------------------------------------
Db|--0--0--------4--5--5-----------------------0--0--------4--5--5--------7--7--7--7--7--7--7--7--

							http://www.guitartabcreator.com
Instruments
{"strings":[[[".",".",".",".",".",7,6,".",".",".",".",".",".",".",".",".",".",".",".",".",".",".",".",".",".","_","_"],[".",".",".",".",".",".",".",7,".",".",".",".",".",".",".",".",".",11,9,7,".",7,9,11,12,"_","_"],[".",".",".",".",".",".",".",".",9,7,5,7,".",".",".",".",".",".",".",".",10,".",".",".",".","_","_"],[4,5,5,5,5,".",".",".",".",".",".",".",9,9,12,7,7,".",".",".",".",".",".",".",".","_","_"]],[[".",".","_","_",".",".",".","_","_",".",".",".",".","_",".",".","_","_",".",".",".","_","_",".",".",".",".",".",".",".","."],[".",".","_","_",".",".",".","_","_",".",4,".",".","_",".",".","_","_",".",".",".","_","_",".",".",".",".",".",".",".","."],[".",".","_","_",".",".",".","_","_",5,".",7,5,"_",".",".","_","_",".",".",".","_","_",".",".",".",".",".",".",".","."],[0,0,"_","_",4,5,5,"_","_",".",".",".",".","_",0,0,"_","_",4,5,5,"_","_",7,7,7,7,7,7,7,7]]],"numberofstrings":4,"notes":["FsGb","CsDb","GsAb","CsDb"],"capo":0,"stringnotes":["Gb2","Db2","Ab1","Db1"],"comments":["Stave 1:","Stave 2:"],"timing":[["W","W","W","W","W","W","W","W","W","W","W","W","W","W","W","W","W","W","W","W","W","W","W","W","W",null,null,null,null,null,null,"W"],["W","W","W","W","W","W","W",null,null,"W","W","W","W",null,"W","W",null,null,"W","W","W","W","W","W","W","W","W","W","W","W","W"]],"timingvisible":false,"tabcounter":31,"stave":0,"totalstaves":2,"instrument":"4bass","selectedtuning":"4bass","version":"13"}

Member for

1 month 2 weeks
Submitted by MisterMcCruff on Thu, 2020-10-22 15:06