Sound will begin in 5 seconds

Sumteb

01234567891011121314151617181920212223
E
B
G
D
A
E
B
0 1 2 3 4 5 6 7 8 9 10 11 12 13 14 15 16 17 18 19 20 21 22 23
Song Science #1: How Pros Use 6 Chords to Write Hit Songs
(/) Slide Up  (\) Slide Down  (h) Hammer On  (p) Pull Off  (b) Bend (r) Release (v) Vibrato

Stave 1:

E|--------------------------------------------------------------
B|--------------------------------------------------------------
G|--------------16--------------16--------------16--------------
D|------14--------------14--------------14--------------14------
A|--15------15------15------15------15------15------15------15--
E|--------------------------------------------------------------

Stave 2:

E|--------------------------------------------------------------
B|--------------------------------------------------------------
G|--------------15--------------15--------------15--------------
D|------13--------------13--------------13--------------13------
A|--15------15------15------15------15------15------15------15--
E|--------------------------------------------------------------

Stave 3:

E|-------------------------------------------------------------------
B|-------------------------------------------------------------------
G|--------------14--------------14--------------14--------------14v--
D|------12--------------12--------------12--------------12-----------
A|--13------13------13------13------13------13------13------13-------
E|-------------------------------------------------------------------

Stave 4:

E|------------------------------------------------------------------
B|------------------------------------------------------------------
G|--------------16--------------15--------------14--------------13--
D|------14--------------13--------------12--------------11----------
A|--15------15------15------15------13------13------13------13------
E|------------------------------------------------------------------

Stave 5:

E|---------------------------------------------------------
B|---------------------------------------------------------
G|--------------12-------------11b11--9--------------------
D|------10--------------9----------------11--9-------------
A|--11------11------10-----10-------------------11b11--9v--
E|---------------------------------------------------------

http://www.guitartabcreator.com
Guitar Tab Creator is intended to store guitar tab created through the tool. It currently does not support in-line text editing. Any text you place in here will be lost. If you need to comment on your tab, please use the "Tab Notes" section located below.