Sound will begin in 5 seconds

Wounded by Third Eye Blind (Standard Tuning)

Chords
01234567891011121314151617181920212223
E
B
G
D
A
E
B
0 1 2 3 4 5 6 7 8 9 10 11 12 13 14 15 16 17 18 19 20 21 22 23
Song Science #1: How Pros Use 6 Chords to Write Hit Songs
(/) Slide Up  (\) Slide Down  (h) Hammer On  (p) Pull Off  (b) Bend (r) Release (v) Vibrato

Stave 1:

E|----------------9--9-------------9-------------------9------9-------------9--
B|-----10-----10--------10-----10-----------10-----10-----10-----10-----10-----
G|--9------9----------------9------------9------9--------------------9---------
D|------------------------------------0----------------------------------------
A|-----------------------------------------------------------------------------
E|-----------------------------------------------------------------------------

Stave 2:

E|----------------------------------
B|----------------------------7-----
G|--------7p6-----6--6-----6-----6--
D|-----7-------7--------7-----------
A|--0-------------------------------
E|----------------------------------

Stave 3:

E|--9---9---9---10--9---------0--0--0--------5--5--5--------
B|--10--10--10--10--10--------0--0--0--------5--5--5--------
G|--9---9---9---9---9---------6--6--6--------6--6--6--------
D|----------------------------7--7--7--------7--7--7--------
A|----------------------------7--7--7--------7--7--7--------
E|----------------------------0--0--0--------5--5--5--------

Stave 4:

E|--0--0--0-----------0--0--------0--0-----------0--0-----------0--0--0-----
B|--2--2--2-----------2--2--------2--2-----------2--2-----------2--2--2-----
G|--2--2--2-----------2--2--------2--2-----------2--2-----------2--2--2-----
D|--2--2--2-----------0--0--------0--0-----------0--0-----------2--2--2-----
A|--0--0--0-----------2--2--------0--0-----------0--0-----------0--0--0-----
E|--0--0--0-----------0--0--------2--2-----------0--0-----------0--0--0-----

Stave 5:

E|--7--5--7--------0--0-----5--5-----3--3-----0--0-----5--5-----------
B|--7--5--7--------0--0-----5--5-----3--3-----0--0-----5--5-----------
G|--7--5--7--------7--7-----6--6-----4--4-----7--7-----6--6-----------
D|--9--7--9--------7--7-----7--7-----5--5-----7--7-----7--7-----------
A|--9--7--9--------5--5-----7--7-----5--5-----5--5-----7--7-----------
E|--7--5--7--------0--0-----5--5-----3--3-----0--0-----5--5-----------

Stave 6:

E|--0--0--------3--3--------------0--0--------------------0--0-----------
B|--2--2--------3--3--------------2--2--------------------2--2-----------
G|--2--2--------0--0--------------2--2--------------------2--2-----------
D|--2--2--------0--0--------------0--0--------------------2--2-----------
A|--0--0--------0--0--------------2--2--------------------0--0-----------
E|--0--0--------3--3--------------0--0--------------------0--0-----------

Stave 7:

E|-----
B|-----
G|-----
D|-----
A|-----
E|-----

Stave 8:

E|--0--0-----------3--3-----------0--0--------------0--0--------
B|--2--2-----------3--3-----------2--2--------------2--2--------
G|--2--2-----------0--0-----------2--2--------------2--2--------
D|--2--2-----------0--0-----------0--0--------------2--2--------
A|--0--0-----------0--0-----------0--0--------------0--0--------
E|--0--0-----------3--3-----------0--0--------------0--0--------

Stave 9:

E|--0--0-----------0--0-----------3--3-----------
B|--2--2-----------2--2-----------3--3-----------
G|--2--2-----------2--2-----------0--0-----------
D|--2--2-----------2--2-----------0--0-----------
A|--0--0-----------0--0-----------0--0-----------
E|--0--0-----------0--0-----------3--3-----------

Stave 10:

E|-----9---------
B|-----10--------
G|-----9---------
D|-----0---------
A|-----0---------
E|-----0---------

http://www.guitartabcreator.com
Guitar Tab Creator is intended to store guitar tab created through the tool. It currently does not support in-line text editing. Any text you place in here will be lost. If you need to comment on your tab, please use the "Tab Notes" section located below.