Sound will begin in 5 seconds

Ulica na losem glasu zavrsni solo

01234567891011121314151617181920212223
E
B
G
D
A
E
B
0 1 2 3 4 5 6 7 8 9 10 11 12 13 14 15 16 17 18 19 20 21 22 23
Song Science #1: How Pros Use 6 Chords to Write Hit Songs
(/) Slide Up  (\) Slide Down  (h) Hammer On  (p) Pull Off  (b) Bend (r) Release (v) Vibrato

Stave 1:

E|----------------------------------------------------
B|--7h10--7h10--7h10--7h10--7h10--6h9--5h8--4h7--3h6--
G|----------------------------------------------------
D|----------------------------------------------------
A|----------------------------------------------------
E|----------------------------------------------------

Stave 2:

E|-----------7------------------7------------------7---------------------------------
B|--------7-----10--7--------7-----10--7--------7-----10--7--------------------------
G|--9b11---------------9b11---------------9b11---------------9--7-----9--7-----------
D|-----------------------------------------------------------------9--------9--7-----
A|--------------------------------------------------------------------------------7--
E|-----------------------------------------------------------------------------------

Stave 3:

E|--17---------14--17---------14--17---------14--17---------14--
B|------17b19----------17b19----------17b19----------17b19------
G|--------------------------------------------------------------
D|--------------------------------------------------------------
A|--------------------------------------------------------------
E|--------------------------------------------------------------

Stave 4:

E|--17---------14--17---------14--17---------14--17---------14--17--14----------
B|------17b19----------17b19----------17b19----------17b19--------------17b19v--
G|------------------------------------------------------------------------------
D|------------------------------------------------------------------------------
A|------------------------------------------------------------------------------
E|------------------------------------------------------------------------------

Stave 5:

E|-----------------------------------------------------7--10--7------------------
B|--10b12--10b12--10b12--10b12--10b12--10--7--------7------------9--7--------9v--
G|--------------------------------------------9b11---------------------9--7------
D|-------------------------------------------------------------------------------
A|-------------------------------------------------------------------------------
E|-------------------------------------------------------------------------------

http://www.guitartabcreator.com
Guitar Tab Creator is intended to store guitar tab created through the tool. It currently does not support in-line text editing. Any text you place in here will be lost. If you need to comment on your tab, please use the "Tab Notes" section located below.