Sound will begin in 5 seconds

ULICA NA LOSEM GLASU TAB

01234567891011121314151617181920212223
E
B
G
D
A
E
B
0 1 2 3 4 5 6 7 8 9 10 11 12 13 14 15 16 17 18 19 20 21 22 23
Song Science #1: How Pros Use 6 Chords to Write Hit Songs
(/) Slide Up  (\) Slide Down  (h) Hammer On  (p) Pull Off  (b) Bend (r) Release (v) Vibrato

Stave 1:

E|----------------------------
B|----------10----------------
G|-------9------7--9--7b8-----
D|--7h9--------------------9--
A|----------------------------
E|----------------------------

Stave 2:

E|---------------------------------------------------
B|---------------------------------------------------
G|-------------7b8-----------------------------------
D|--7h9-------------9--------------------------------
A|-------9--9----------7b10v-------------------------
E|----------------------------5--5--5--5--5--5--5h7--

Stave 3:

E|------------------------------------------5/7----------------
B|--10b12b12----------------------10---------------------------
G|------------7--9--7b8-----9b11------7--9-------9b11--7b8-----
D|-----------------------9----------------------------------9--
A|-------------------------------------------------------------
E|-------------------------------------------------------------

Stave 4:

E|---------------------17----------10b12--7------------------------
B|--------------17b19------17----------------7--10-----------------
G|-----------------------------16-------------------9b11--9--7-----
D|--------------------------------------------------------------9--
A|--12--12--12-----------------------------------------------------
E|-----------------------------------------------------------------

Stave 5:

E|--------------------------------------------------7------------------7---------
B|-----------------------------------------------7-----10--7--------7-----10--7--
G|--9b12--9--7-----------------7-----------9b11---------------9b11---------------
D|--------------9--7-----9--------9--7--7----------------------------------------
A|--------------------9-----9----------------------------------------------------
E|-------------------------------------------------------------------------------

Stave 6:

E|-----------7------------------------------------
B|--------7-----10--9--7--------------------------
G|--9b11------------------10--9--7b9--------------
D|------------------------------------9--7--------
A|------------------------------------------9--7--
E|------------------------------------------------

Stave 7:

E|--
B|--
G|--
D|--
A|--
E|--

http://www.guitartabcreator.com
Guitar Tab Creator is intended to store guitar tab created through the tool. It currently does not support in-line text editing. Any text you place in here will be lost. If you need to comment on your tab, please use the "Tab Notes" section located below.