Long Ago and Far Away

01234567891011121314151617181920212223
E
B
G
D
A
E
B
0 1 2 3 4 5 6 7 8 9 10 11 12 13 14 15 16 17 18 19 20 21 22 23
(/) Slide Up  (\) Slide Down  (h) Hammer On  (p) Pull Off  (b) Bend (r) Release (v) Vibrato

Stave 1:

E|--1--------------1-----|--1--5--0--------|--0-----------0--|--0--1--x-----|--------------------------------------------------0--------|--5--------3-----------|--
B|--3--------------1-----|--3-----3--3-----|--1--------1-----|--3--3--3-----|--------3-----------1--3-----------------1-----3-----6--7--|--3--------3-----------|--
G|--2--------------2-----|--3-----3--------|--2-----2--------|--3--3--3--3--|--------2--------2-----3-----------3-----------0-----5-----|--3--------3-----------|--
D|--x-----2--1--0--------|--------2--------|--3--3-----------|-----3--2-----|--------x--------------3-----------2-----------2-----4-----|--3--------2-----------|--
A|--3--------------------|--------3--------|-----------------|--------3-----|--------3-----3--------x-----4-----3-----------0-----5-----|-----------------------|--
E|--1--------------------|-----------------|-----------------|--------------|--------1--1-----------3-----------------------------------|-----------------------|--

Stave 2:

E|--4-----------4--|--4--8--3-----1--|--------3-----------3--|--3--7--1--0--|--3--------0--|--5--------6--|--8------------8------------------------|--|--|-----------
B|--6-----------4--|--2-----2--------|--------1--------1-----|--0-----0-----|--0-----------|--5--------5--|--11-----------10-----------------------|--|--|-----------
G|--5-----------x--|--3-----3--------|--------1-----1--------|--0-----0-----|--0-----------|--5--------5--|--10-----------9------------------------|--|--|-----------
D|--x--5--4--3-----|--------1--------|--------1--1-----------|--3-----0-----|--2-----------|--5--------0--|--_-----------8------------------------|--|--|-----------
A|--6--------------|-----------------|-----------------------|--------------|--3--2--------|--0-----------|--10-----------10-----------------------|--|--|-----------
E|--4--------------|-----------------|-----------------------|--------------|--------------|--------------|--_-----------8------------------------|--|--|-----------

							http://www.guitartabcreator.com
Chords

Instruments
{"strings":[[[1,".","_",".",".",1,".","|",1,5,0,".",".","|",0,".",".",".",0,"|",0,1,"x",".","|",".",".",".",".",".",".",".",".",".",".",".",".",".",".",".",".",0,".",".","|",5,".",".",3,".",".","_","|"],[3,".","_",".",".",1,".","|",3,".",3,3,".","|",1,".",".",1,".","|",3,3,3,".","|",".",".",3,".",".",".",1,3,".",".",".",".",".",1,".",3,".",6,7,"|",3,".",".",3,".",".","_","|"],[2,".","_",".",".",2,".","|",3,".",3,".",".","|",2,".",2,".",".","|",3,3,3,3,"|",".",".",2,".",".",2,".",3,".",".",".",3,".",".",".",0,".",5,".","|",3,".",".",3,".",".","_","|"],["x",".",2,1,0,".",".","|",".",".",2,".",".","|",3,3,".",".",".","|",".",3,2,".","|",".",".","x",".",".",".",".",3,".",".",".",2,".",".",".",2,".",4,".","|",3,".",".",2,".",".","_","|"],[3,".","_",".",".",".",".","|",".",".",3,".",".","|","_",".",".",".",".","|",".",".",3,".","|",".",".",3,".",3,".",".","x",".",4,".",3,".",".",".",0,".",5,".","|",".",".",".",".",".",".","_","|"],[1,".","_",".",".",".",".","|",".",".",".",".",".","|","_",".",".",".",".","|",".",".",".",".","|",".",".",1,1,".",".",".",3,".",".",".",".",".",".",".",".",".",".",".","|",".",".",".",".",".",".","_","|"]],[[4,".",".",".",4,"|",4,8,3,".",1,"|",".",".",3,".",".",".",3,"|",3,7,1,0,"|",3,".",".",0,"|",5,".",".",6,"|",8,"_","_","_",8,"_","_","_","_","_","_","_","|","|","|","_","_","_"],[6,".",".",".",4,"|",2,".",2,".",".","|",".",".",1,".",".",1,".","|",0,".",0,".","|",0,".",".",".","|",5,".",".",5,"|",11,"_","_","_",10,"_","_","_","_","_","_","_","|","|","|","_","_","_"],[5,".",".",".","x","|",3,".",3,".",".","|",".",".",1,".",1,".",".","|",0,".",0,".","|",0,".",".",".","|",5,".",".",5,"|",10,"_","_","_",9,"_","_","_","_","_","_","_","|","|","|","_","_","_"],["x",5,4,3,".","|",".",".",1,".",".","|",".",".",1,1,".",".",".","|",3,".",0,".","|",2,".",".",".","|",5,".",".",0,"|","_","_","_","_",8,"_","_","_","_","_","_","_","|","|","|","_","_","_"],[6,".",".",".",".","|",".",".",".",".",".","|",".",".",".",".",".",".",".","|",".",".",".",".","|",3,2,".",".","|",0,".",".",".","|",10,"_","_","_",10,"_","_","_","_","_","_","_","|","|","|","_","_","_"],[4,".",".",".",".","|",".",".",".",".",".","|",".",".",".",".",".",".",".","|",".",".",".",".","|",".",".",".",".","|",".",".",".",".","|","_","_","_","_",8,"_","_","_","_","_","_","_","|","|","|","_","_","_"]]],"numberofstrings":6,"notes":["E","B","G","D","A","E","B"],"capo":0,"stringnotes":["E4","B3","G3","D3","A2","E2"],"comments":["Stave 1:","Stave 2:"],"timing":[[null,null,"W","W","W",null,"W","W","W","W",null,null,null,null,"W",null,null,null,null,null,"W","W","W","W","W","W","W","W","W","W",null,"W","W","W","W","W","W","W","W","W",null,"W","W","W","W","W","W","W","W","W","W",null,"W","W","W"],[null,null,"W",null,"W",null,null,"W","W","W","W","W","W","W",null,null,"W",null,"W","W","W","W",null,"W","W",null,"W",null,"W",null,null,"W",null,"W",null,null,"W","W","W","W","W",null,null,null,"W","W","W",null,"W",null,"W","W","W","W",null,"W"]],"timingvisible":false,"tabcounter":53,"stave":1,"totalstaves":2,"instrument":"6guitar","selectedtuning":"6_standard","version":"13"}

Member for

1 week 6 days
Submitted by MirandaSwift on Sat, 2021-02-20 16:39