Halsey - Graveyard Fingerstyle Arragement

Chords

01234567891011121314151617181920212223
E
B
G
D
A
E
B
0 1 2 3 4 5 6 7 8 9 10 11 12 13 14 15 16 17 18 19 20 21 22 23
(/) Slide Up  (\) Slide Down  (h) Hammer On  (p) Pull Off  (b) Bend (r) Release (v) Vibrato

Capo Fret 2

Stave 1:

E|-----------------------------------------|-----------------------|-----------------------|--
B|-----------1-----------1--------1--------|-----------1-----------|-----------0-----------|--
G|-----2--------2-----2--------2--------2--|-----0--------0-----0--|-----0--------0-----0--|--
D|--3-----3--------3--------3--------3-----|-----------------------|-----------------------|--
A|-----------------------------------------|--0-----0--------0-----|--3-----3--------3-----|--
E|-----------------------------------------|-----------------------|-----------------------|--

Stave 2:

E|-------------------------------------|--------------|------------------|--
B|--------------1h0--------------0-----|--1-----1--3--|--0-----0p1h0-----|--
G|-----2-----2-------2-----2--------2--|-----0--0--0--|--2--2---------2--|--
D|--3-----3-----3-------3-----3--------|--------------|------------------|--
A|-------------------------------------|--0-----0-----|--3---------------|--
E|-------------------------------------|--------------|------------------|--

Stave 3:

E|-----------------------------------|-----------------------|-----------------------|--
B|-----------1-----------------------|-----------1-----------|-----------0-----------|--
G|-----2--------2-----0--2-----------|-----0--------0-----0--|-----0--------0-----0--|--
D|--3-----3--------3--------0--0--0--|-----------------------|-----------------------|--
A|-----------------------------------|--0-----0--------0-----|--3-----3--------3-----|--
E|-----------------------------------|-----------------------|-----------------------|--

Stave 4:

E|-------------------------------------|--------------|------------------|--
B|--------------1h0--------------0-----|--1-----1--3--|--0-----0p1h0-----|--
G|-----2-----2-------2-----2--------2--|-----0--0--0--|--2--2---------2--|--
D|--3-----3-----3-------3-----3--------|--------------|------------------|--
A|-------------------------------------|--0-----0-----|--3---------------|--
E|-------------------------------------|--------------|------------------|--

Stave 5:

E|-----------------------------------|-----------------------|----------
B|-----------1-----------------------|-----------1-----------|-------1--
G|-----2--------2-----0--2-----------|-----0--------0-----0--|--0h2-----
D|--3-----3--------3--------0--0--0--|-----------------------|----------
A|-----------------------------------|--0-----0--------0-----|----------
E|-----------------------------------|-----------------------|----------

Stave 6:

E|-----------------------------------------------------
B|--1h3--3v--3--3--3---3--3--3--3v--3--3--1--0p1h0-----
G|--2--------------2v--2-----0--0------0------------2--
D|--3--------------------------------------------------
A|--------------1------------0------0------------------
E|-----------------------------------------------------

Stave 7:

E|-------------------------------------------|--3--3/5--5--3-----3--1--0-----------------3--1--0--------------------0--0--------------|--
B|--1h3--3v--3--3--3---3--3--3--3---3--3--1--|----------------------------3--1--------------1-----3--1-----------------------1--1-----|--
G|--2--------------2v--2-----0--0v-----0-----|----------------------------------0--0--0-----2-----------0--0--0--0-----------0--0-----|--
D|--3----------------------------------------|----------------------------------------------3-----------------------------------------|--
A|--------------1------------0------0--------|----------------------0-----------0-----------------------0-----------------0-----0--0--|--
E|-------------------------------------------|-------------3--3-----------------------------------------------------------------------|--

Stave 8:

E|--3--3/5--5--3-----3--1--0-----------------3--1--0--------------------0--0--------------------|--
B|----------------------------3--1--------------------3--1-----------------------1--1--------1--|--
G|----------------------------------0--0--0-----------------0--0--0--0-----------0--0--0--2-----|--
D|----------------------------------------------------------------------------------------------|--
A|----------------------0-----------0-----------------------0-----------------0-----0-----------|--
E|-------------3--3-----------------------------------------------------------------------------|--

Stave 9:

E|-------------------------------------------0p1h0-----|-------------------------------------------0p1h0-----|--
B|--1h3--3v--3--3--3---3--3--3--3---3--3--1---------1--|--1h3--3v--3--3--3---3--3--3--3---3--3--1---------1--|--
G|--2--------------2v--2-----0--0v-----0---------------|--2--------------2v--2-----0--0v-----0---------------|--
D|--3--------------------------------------------------|--3--------------------------------------------------|--
A|--------------1------------0------0------------------|--------------1------------0------0------------------|--
E|-----------------------------------------------------|-----------------------------------------------------|--

Stave 10:

E|--------------3--1--0-----------------3--1--0--------------------0--0-----------|--
B|--1---1p0--------------3--1--------------------3--1-----------------------1--1--|--
G|--2--------0-----------------0--0--0-----------------0--0--0--0-----------0--0--|--
D|--3v----------------------------------------------------------------------------|--
A|-----------------0-----------0-----------0-----------0-----------------0-----0--|--
E|-----------3--------------------------------------------------------------------|--

							http://www.guitartabcreator.com
genre
Instruments
{"strings":[[[".",".",".",".",".",".",".",".",".",".",".",".",".","|",".",".",".",".",".",".",".","|",".",".",".",".",".",".",".","|"],[".",".",".",1,".",".",".",1,".",".",1,".",".","|",".",".",".",1,".",".",".","|",".",".",".",0,".",".",".","|"],[".",2,".",".",2,".",2,".",".",2,".",".",2,"|",".",0,".",".",0,".",0,"|",".",0,".",".",0,".",0,"|"],[3,".",3,".",".",3,".",".",3,".",".",3,".","|",".",".",".",".",".",".",".","|",".",".",".",".",".",".",".","|"],[".",".",".",".",".",".",".",".",".",".",".",".",".","|",0,".",0,".",".",0,".","|",3,".",3,".",".",3,".","|"],[".",".",".",".",".",".",".",".",".",".",".",".",".","|",".",".",".",".",".",".",".","|",".",".",".",".",".",".",".","|"]],[[".",".",".",".",".",".",".",".",".",".",".",".",".","|",".",".",".",".","|",".",".",".",".",".",".",".",".","|"],[".",".",".",".",1,"h",0,".",".",".",".",0,".","|",1,".",1,3,"|",0,".",0,"p",1,"h",0,".","|"],[".",2,".",2,".",".",".",2,".",2,".",".",2,"|",".",0,0,0,"|",2,2,".",".",".",".",".",2,"|"],[3,".",3,".",3,".",".",".",3,".",3,".",".","|",".",".",".",".","|",".",".",".",".",".",".",".",".","|"],[".",".",".",".",".",".",".",".",".",".",".",".",".","|",0,".",0,".","|",3,".",".",".",".",".",".",".","|"],[".",".",".",".",".",".",".",".",".",".",".",".",".","|",".",".",".",".","|",".",".",".",".",".",".",".",".","|"]],[[".",".",".",".",".",".",".",".",".",".",".","|",".",".",".",".",".",".",".","|",".",".",".",".",".",".",".","|"],[".",".",".",1,".",".",".",".",".",".",".","|",".",".",".",1,".",".",".","|",".",".",".",0,".",".",".","|"],[".",2,".",".",2,".",0,2,".",".",".","|",".",0,".",".",0,".",0,"|",".",0,".",".",0,".",0,"|"],[3,".",3,".",".",3,".",".",0,0,0,"|",".",".",".",".",".",".",".","|",".",".",".",".",".",".",".","|"],[".",".",".",".",".",".",".",".",".",".",".","|",0,".",0,".",".",0,".","|",3,".",3,".",".",3,".","|"],[".",".",".",".",".",".",".",".",".",".",".","|",".",".",".",".",".",".",".","|",".",".",".",".",".",".",".","|"]],[[".",".",".",".",".",".",".",".",".",".",".",".",".","|",".",".",".",".","|",".",".",".",".",".",".",".",".","|"],[".",".",".",".",1,"h",0,".",".",".",".",0,".","|",1,".",1,3,"|",0,".",0,"p",1,"h",0,".","|"],[".",2,".",2,".",".",".",2,".",2,".",".",2,"|",".",0,0,0,"|",2,2,".",".",".",".",".",2,"|"],[3,".",3,".",3,".",".",".",3,".",3,".",".","|",".",".",".",".","|",".",".",".",".",".",".",".",".","|"],[".",".",".",".",".",".",".",".",".",".",".",".",".","|",0,".",0,".","|",3,".",".",".",".",".",".",".","|"],[".",".",".",".",".",".",".",".",".",".",".",".",".","|",".",".",".",".","|",".",".",".",".",".",".",".",".","|"]],[[".",".",".",".",".",".",".",".",".",".",".","|",".",".",".",".",".",".",".","|",".",".",".","."],[".",".",".",1,".",".",".",".",".",".",".","|",".",".",".",1,".",".",".","|",".",".",".",1],[".",2,".",".",2,".",0,2,".",".",".","|",".",0,".",".",0,".",0,"|",0,"h",2,"."],[3,".",3,".",".",3,".",".",0,0,0,"|",".",".",".",".",".",".",".","|",".",".",".","."],[".",".",".",".",".",".",".",".",".",".",".","|",0,".",0,".",".",0,".","|",".",".",".","."],[".",".",".",".",".",".",".",".",".",".",".","|",".",".",".",".",".",".",".","|",".",".",".","."]],[[".",".",".",".",".",".",".",".",".",".",".",".",".",".",".",".",".",".",".",".",".",".","."],[1,"h",3,3,"v",3,3,3,".",3,3,3,3,"v",3,3,1,0,"p",1,"h",0,"."],[2,".",".",".",".",".",".",2,"v",2,".",0,0,".",".",0,".",".",".",".",".",".",2],[3,".",".",".",".",".",".",".",".",".",".",".",".",".",".",".",".",".",".",".",".",".","."],[".",".",".",".",".",".",1,".",".",".",".",0,".",".",0,".",".",".",".",".",".",".","."],[".",".",".",".",".",".",".",".",".",".",".",".",".",".",".",".",".",".",".",".",".",".","."]],[[".",".",".",".",".",".",".",".",".",".",".",".",".",".",".",".",".","|",3,3,"/",5,5,3,".",3,1,0,".",".",".",".",".",3,1,0,".",".",".",".",".",".",0,0,".",".",".",".","|"],[1,"h",3,3,"v",3,3,3,".",3,3,3,3,".",3,3,1,"|",".",".",".",".",".",".",".",".",".",".",3,1,".",".",".",".",1,".",3,1,".",".",".",".",".",".",".",1,1,".","|"],[2,".",".",".",".",".",".",2,"v",2,".",0,0,"v",".",0,".","|",".",".",".",".",".",".",".",".",".",".",".",".",0,0,0,".",2,".",".",".",0,0,0,0,".",".",".",0,0,".","|"],[3,".",".",".",".",".",".",".",".",".",".",".",".",".",".",".",".","|",".",".",".",".",".",".",".",".",".",".",".",".",".",".",".",".",3,".",".",".",".",".",".",".",".",".",".",".",".",".","|"],[".",".",".",".",".",".",1,".",".",".",".",0,".",".",0,".",".","|",".",".",".",".",".",".",".",".",0,".",".",".",0,".",".",".",".",".",".",".",0,".",".",".",".",".",0,".",0,0,"|"],[".",".",".",".",".",".",".",".",".",".",".",".",".",".",".",".",".","|",".",".",".",".",".",3,3,".",".",".",".",".",".",".",".",".",".",".",".",".",".",".",".",".",".",".",".",".",".",".","|"]],[[3,3,"/",5,5,3,".",3,1,0,".",".",".",".",".",3,1,0,".",".",".",".",".",".",0,0,".",".",".",".",".",".","|"],[".",".",".",".",".",".",".",".",".",".",3,1,".",".",".",".",".",".",3,1,".",".",".",".",".",".",".",1,1,".",".",1,"|"],[".",".",".",".",".",".",".",".",".",".",".",".",0,0,0,".",".",".",".",".",0,0,0,0,".",".",".",0,0,0,2,".","|"],[".",".",".",".",".",".",".",".",".",".",".",".",".",".",".",".",".",".",".",".",".",".",".",".",".",".",".",".",".",".",".",".","|"],[".",".",".",".",".",".",".",".",0,".",".",".",0,".",".",".",".",".",".",".",0,".",".",".",".",".",0,".",0,".",".",".","|"],[".",".",".",".",".",3,3,".",".",".",".",".",".",".",".",".",".",".",".",".",".",".",".",".",".",".",".",".",".",".",".",".","|"]],[[".",".",".",".",".",".",".",".",".",".",".",".",".",".",".",".",".",0,"p",1,"h",0,".","|",".",".",".",".",".",".",".",".",".",".",".",".",".",".",".",".",".",0,"p",1,"h",0,".","|"],[1,"h",3,3,"v",3,3,3,".",3,3,3,3,".",3,3,1,".",".",".",".",".",1,"|",1,"h",3,3,"v",3,3,3,".",3,3,3,3,".",3,3,1,".",".",".",".",".",1,"|"],[2,".",".",".",".",".",".",2,"v",2,".",0,0,"v",".",0,".",".",".",".",".",".",".","|",2,".",".",".",".",".",".",2,"v",2,".",0,0,"v",".",0,".",".",".",".",".",".",".","|"],[3,".",".",".",".",".",".",".",".",".",".",".",".",".",".",".",".",".",".",".",".",".",".","|",3,".",".",".",".",".",".",".",".",".",".",".",".",".",".",".",".",".",".",".",".",".",".","|"],[".",".",".",".",".",".",1,".",".",".",".",0,".",".",0,".",".",".",".",".",".",".",".","|",".",".",".",".",".",".",1,".",".",".",".",0,".",".",0,".",".",".",".",".",".",".",".","|"],[".",".",".",".",".",".",".",".",".",".",".",".",".",".",".",".",".",".",".",".",".",".",".","|",".",".",".",".",".",".",".",".",".",".",".",".",".",".",".",".",".",".",".",".",".",".",".","|"]],[[".",".",".",".",".",".",3,1,0,".",".",".",".",".",3,1,0,".",".",".",".",".",".",0,0,".",".",".","|"],[1,".",1,"p",0,".",".",".",".",3,1,".",".",".",".",".",".",3,1,".",".",".",".",".",".",".",1,1,"|"],[2,".",".",".",".",0,".",".",".",".",".",0,0,0,".",".",".",".",".",0,0,0,0,".",".",".",0,0,"|"],[3,"v",".",".",".",".",".",".",".",".",".",".",".",".",".",".",".",".",".",".",".",".",".",".",".",".",".",".","|"],[".",".",".",".",".",".",".",0,".",".",".",0,".",".",".",0,".",".",".",0,".",".",".",".",".",0,".",0,"|"],[".",".",".",".",".",3,".",".",".",".",".",".",".",".",".",".",".",".",".",".",".",".",".",".",".",".",".",".","|"]]],"numberofstrings":6,"notes":["E","B","G","D","A","E","B"],"capo":"2","stringnotes":["E4","B3","G3","D3","A2","E2"],"comments":["Stave 1:","Stave 2:","Stave 3:","Stave 4:","Stave 5:","Stave 6:","Stave 7:","Stave 8:","Stave 9:","Stave 10:"],"timing":[[null,null,null,null,null,null,null,null,null,null,null,null,null,null,null,null,null,null,null,null,null,null,null,null,null,null,null,null,null],["W","W","W","W","W",null,"W","W","W","W","W","W","W",null,"W","W","W","W",null,"W","W","W",null,"W",null,"W","W"],["W","W","W","W","W","W","W","W","W","W","W",null,"W","W","W","W","W","W","W",null,"W","W","W","W","W","W","W"],["W","W","W","W","W",null,"W","W","W","W","W","W","W",null,"W","W","W","W",null,"W","W","W",null,"W","W","W","W"],["W","W","W","W","W","W","W","W","W","W","W",null,"W","W","W","W","W","W","W",null,"W","W","W","W"],["W",null,"W","W","W","W","W","W",null,"W","W","W","W",null,"W","W","W","W",null,"W",null,"W","W"],["W",null,"W","W",null,"W","W","W",null,"W","W","W","W",null,"W","W","W","W","W","W",null,"W","W","W","W","W","W","W","W","W","W","W","W","W","W","W","W","W","W","W","W","W","W","W","W","W","W","W","W","W"],["W","W",null,"W","W","W","W","W","W","W","W","W","W","W","W","W","W","W","W","W","W","W","W","W","W","W","W","W","W","W","W","W"],["W",null,"W","W",null,"W","W","W",null,"W","W","W","W",null,"W","W","W","W",null,"W",null,"W","W",null,"W",null,"W","W",null,"W","W","W",null,"W","W","W","W",null,"W","W","W","W",null,"W",null,"W","W"],["W",null,"W",null,"W","W","W","W","W","W","W","W","W","W","W","W","W","W","W","W","W","W","W","W","W","W","W","W"]],"timingvisible":false,"tabcounter":29,"stave":9,"totalstaves":10,"instrument":"6guitar","selectedtuning":"6_standard","version":"13"}

Member for

4 months 2 weeks
Submitted by Mira on Mon, 2020-07-13 06:19