Sound will begin in 5 seconds

Untitled

Chords
01234567891011121314151617181920212223
E
B
G
D
A
E
B
0 1 2 3 4 5 6 7 8 9 10 11 12 13 14 15 16 17 18 19 20 21 22 23
(/) Slide Up  (\) Slide Down  (h) Hammer On  (p) Pull Off  (b) Bend (r) Release (v) Vibrato

Intro:

E|-------------------------------------------------------------------------------------
B|-------------------------------------------------------------------------------------
G|-----------4h5p4-----4-------------------------------4--5--4--2-----------5/7--5--4--
D|-----5------------5--------4-----5/7--5--4-----2--------------------4----------------
A|--7-----7---------------5-----5-------------3-----3--------------5-----5-------------
E|-------------------------------------------------------------------------------------



E|---------------------------------------------------------------------------------------
B|---------------------------------------------------------------------------------------
G|-----------4h5p4-----4---------------------------------4--5--4--2-----------5/7--5--4--
D|-----5------------5--------4-----5/7/9--7--5-----2--------------------4----------------
A|--7-----7---------------5-----5---------------3-----3--------------5-----5-------------
E|---------------------------------------------------------------------------------------

Verse:2x

E|----------------------------------------------------------------------------------------
B|----------------------------------------------------------------------------------------
G|-----------4--------------------------------------------4--------------------5/7--5--4--
D|-----5--------5-----5-----4-----2-----2-----------5--------5-----5-----4----------------
A|--7-----7--------7-----5-----5-----3-----3-----7-----7--------7-----5-----5-------------
E|----------------------------------------------------------------------------------------

Pre-chorus

E|--------------------------------------------------------------------------
B|--------------------------------------------------------------------------
G|--------------------------------------------------------------------------
D|--5--5--5--5--5--5--5--5--7--7--7--7--7--7--7--7--9--9--9--9--9--9--9--9--
A|--3--3--3--3--3--3--3--3--5--5--5--5--5--5--5--5--7--7--7--7--7--7--7--7--
E|--------------------------------------------------------------------------

Stave 5:

E|--------
B|--------
G|--------
D|--------
A|--------
E|--------

Stave 6:

E|-----
B|-----
G|-----
D|--6--
A|-----
E|-----

http://www.guitartabcreator.com
Guitar Tab Creator is intended to store guitar tab created through the tool. It currently does not support in-line text editing. Any text you place in here will be lost. If you need to comment on your tab, please use the "Tab Notes" section located below.