Sound will begin in 5 seconds

Luck As A Constant Solo

01234567891011121314151617181920212223
E
B
G
D
A
E
B
0 1 2 3 4 5 6 7 8 9 10 11 12 13 14 15 16 17 18 19 20 21 22 23
Song Science #1: How Pros Use 6 Chords to Write Hit Songs
(/) Slide Up  (\) Slide Down  (h) Hammer On  (p) Pull Off  (b) Bend (r) Release (v) Vibrato

Stave 1:

E|---------------------------------------------------------------------------------------15-15-15-15-
B|--------------8-8-8-8-----------8-9-8--------------------------11----11-13----16-------------------
G|--------8------------------8-10----------8---10-7------8-10-12----12-------15----15----------------
D|-8-10-8---8-6---------8-10------------10---8------8-10------------------------------17-------------
A|---------------------------------------------------------------------------------------------------
E|---------------------------------------------------------------------------------------------------
A|---------------------------------------------------------------------------------------------------

Stave 2:

E|-------------15-16-15----------13----
B|-------16-18----------13-16-13----15-
G|-15-17-------------------------------
D|-------------------------------------
A|-------------------------------------
E|-------------------------------------
A|-------------------------------------

http://www.guitartabcreator.com
Guitar Tab Creator is intended to store guitar tab created through the tool. It currently does not support in-line text editing. Any text you place in here will be lost. If you need to comment on your tab, please use the "Tab Notes" section located below.