Sound will begin in 5 seconds

Muse - Knights of Cydonia

01234567891011121314151617181920212223
E
B
G
D
A
E
B
0 1 2 3 4 5 6 7 8 9 10 11 12 13 14 15 16 17 18 19 20 21 22 23
Song Science #1: How Pros Use 6 Chords to Write Hit Songs
(/) Slide Up  (\) Slide Down  (h) Hammer On  (p) Pull Off  (b) Bend (r) Release (v) Vibrato

Stave 1:

E|--------------------
B|--------------------
G|--------------------
D|--------------------
A|--------------------
E|--0--2--3--5--5--7--

Stave 2:

E|--------------------
B|--------------------
G|--------------------
D|--------------------
A|--------------------
E|--0--2--3--5--5--7--

Stave 3:

E|------------------------------------
B|------------------------------------
G|------------------------------------
D|------------------------------------
A|--7--9--10--12--10--9--10--9--7--6--
E|------------------------------------

Stave 4:

E|------------------------------------
B|------------------------------------
G|------------------------------------
D|------------------------------------
A|--7--9--10--12--10--9--10--9--7--6--
E|------------------------------------

Stave 5:

E|----------------------------------------------------------------------
B|----------------------------------------------------------------------
G|----------------------------------------------------------------------
D|----------------------------------------------------------------------
A|--10--9--7--5--7--9--10--9--7--5--6--7--9--7--10--12--13--12--13--14--
E|----------------------------------------------------------------------

Stave 6:

E|----------------------------------------------------------------
B|----------------------------------------------------------------
G|----------------------------------------------------------------
D|--13--10------12--13--12--10--8--12--10--8--10--8--6--8--9--10--
A|----------10----------------------------------------------------
E|----------------------------------------------------------------

Stave 7:

E|------------------------------------
B|------------------------------------
G|------------------------------------
D|--9--9--9--9--11--11--11--11--8--8--
A|------------------------------------
E|------------------------------------

http://www.guitartabcreator.com
Guitar Tab Creator is intended to store guitar tab created through the tool. It currently does not support in-line text editing. Any text you place in here will be lost. If you need to comment on your tab, please use the "Tab Notes" section located below.