Sound will begin in 5 seconds

Matthew koma- kisses back

01234567891011121314151617181920212223
E
B
G
D
A
E
B
0 1 2 3 4 5 6 7 8 9 10 11 12 13 14 15 16 17 18 19 20 21 22 23
(/) Slide Up  (\) Slide Down  (h) Hammer On  (p) Pull Off  (b) Bend (r) Release (v) Vibrato

Stave 1:

E|--3--0--0-----0--2--3--------------------------7--5--------------------------------------------------
B|-----------0--------------------------------------------------5--7--7--------------------------------
G|-----------------------7--5-----7--5-----------------7--7--7-----------7--5--------5-----------------
D|-----------------------------7--------9--7--9--------------------------------9--7-----9--9--9--7--9--
A|-----------------------------------------------------------------------------------------------------
E|-----------------------------------------------------------------------------------------------------

Stave 2:

E|-----------------------------------------------------------------------------------------------------------
B|--7-----5--5--5--------5--7--8--8--------------------------------8--------------5--7--8--7--5-----5--7--7--
G|-----7--------------7--------------7--5-----------7--5--------5-----7--7-----7-----------------8-----------
D|-----------------9-----------------------9--7--9--------9--7--------------7--------------------------------
A|-----------------------------------------------------------------------------------------------------------
E|-----------------------------------------------------------------------------------------------------------

Stave 3:

E|--------------------------------------------------------------------------------------------------------------
B|--8--7--5--5--7--7--8--7--8--5--8--------------------------------------------7--7--7--------8--------5--7--8--
G|-----------------------------------------5--------------------------------------------7--5-----7--------------
D|-----------------------------------7--9-----9--9--7--9--9--9--5--7--9--9--9-----------------------9-----------
A|--------------------------------------------------------------------------------------------------------------
E|--------------------------------------------------------------------------------------------------------------

Stave 4:

E|-----------------------------------------------------------------------------------------------------------
B|-----------------------------------------------8--5--5-----5--7-----7--------8--7--------8--7-----8--7--5--
G|-----------7--7--5-----------------5-----------------------------8-----------------------------------------
D|--9--7--9-----------9--7--7--5--7-----9--7--5-----------9--------------9--9--------9--9--------9-----------
A|-----------------------------------------------------------------------------------------------------------
E|-----------------------------------------------------------------------------------------------------------

Stave 5:

E|-----------------------------------------------------------------------------------------------------
B|-----------------------7--------------------------5--5--------5--7--5-----7--8--8--5--5-----5--7--8--
G|-----------7--7--5--------------------5--------------------5-----------------------------------------
D|--9--7--9-----------9-----7--5--7--9-----9--7--9--------9--------------9-----------------9-----------
A|-----------------------------------------------------------------------------------------------------
E|-----------------------------------------------------------------------------------------------------

Stave 6:

E|-----------------------------7--------------------------------------------------------------------------------
B|--8-----------------------------8-----------5--7--------------------------5--5--------5--7--8-----------------
G|-----7--6--------7--5--------------7--7--7--------7--5-----5-----------------------7-----------7--5-----------
D|-----------9--7--------9--7-----------------------------7-----9--9--7--9--------9--------------------9--7--9--
A|--------------------------------------------------------------------------------------------------------------
E|--------------------------------------------------------------------------------------------------------------

Stave 7:

E|--------------------------------------------------------------------------------------------------------
B|-----------------8-----------------5--7--8--7--7--5-----5--7--7--8--7--5--5--5--7--8--7--8--7--5-----8--
G|--7--5--------5-----7--7--7-----7--------------------8--------------------------------------------7-----
D|--------9--7-----------------7--------------------------------------------------------------------------
A|--------------------------------------------------------------------------------------------------------
E|--------------------------------------------------------------------------------------------------------

Stave 8:

E|--------------------------------------------------------------------------------------------------------------------
B|-----------------------------------------------7--7-----------8--------------------------7--------------------------
G|-----------------------------------------------------7--5--------7-----------7--5-----------------------5-----------
D|--5--7--9--9--9--5--7--9--9--7--9--7--9--9--9--------------9--------9--7--9--------9--7-----7--5--7--9-----9--7--5--
A|--------------------------------------------------------------------------------------------------------------------
E|--------------------------------------------------------------------------------------------------------------------

Stave 9:

E|--------------------------------------------------------------------------------------------------
B|--8-----5--5--------5--7--5--------8--7-----7--5--------------------------------------------------
G|-----7-----------------------------------------------------7--5--------------------5--------------
D|--------------9--9-----------9--9--------9--------9--7--9--------9--7--5--7--5--7-----9--7--5--7--
A|--------------------------------------------------------------------------------------------------
E|--------------------------------------------------------------------------------------------------

Stave 10:

E|--------------------------------------------------------------------------------------------
B|--8-----5--5--------5--7--5-----7-----8-----8--5--5--5--7--8--------------------------------
G|-----7-----------------------8--------------------------------7--5--------7--5--------5-----
D|--------------9--9-----------------9-----9--------------------------9--7--------9--7-----9--
A|--------------------------------------------------------------------------------------------
E|--------------------------------------------------------------------------------------------

Stave 11:

E|-----------------------------------------------5-----------7-----------------------------7-----------------------
B|-----------5--7--------------------------5--8-----7--8--5-----------------------------------8--8-----------------
G|--7--7--7--------7--5--------5--------------------------------7--5-----------7--5-----------------7--7--7--------
D|-----------------------9--7-----9--9--7-----------------------------9--7--9--------9--7--------------------9--7--
A|-----------------------------------------------------------------------------------------------------------------
E|-----------------------------------------------------------------------------------------------------------------

Stave 12:

E|--
B|--
G|--
D|--
A|--
E|--

http://www.guitartabcreator.com
Guitar Tab Creator is intended to store guitar tab created through the tool. It currently does not support in-line text editing. Any text you place in here will be lost. If you need to comment on your tab, please use the "Tab Notes" section located below.