Sound will begin in 5 seconds

toddle disillusion solo

01234567891011121314151617181920212223
E
B
G
D
A
E
B
0 1 2 3 4 5 6 7 8 9 10 11 12 13 14 15 16 17 18 19 20 21 22 23
Song Science #1: How Pros Use 6 Chords to Write Hit Songs
(/) Slide Up  (\) Slide Down  (h) Hammer On  (p) Pull Off  (b) Bend (r) Release (v) Vibrato

Stave 1:

E|-----------------------------------------------------------------------------------------------
B|-----------------------------------------------------------------------------------------------
G|-----------------------------------------------------------------------------------------------
D|-----------------------------------------------------------------------------------------------
A|--------5--5--5--6--5------------------------------------------5--5--6--5--6--8--8--10--8--10--
E|--6--8-----------------8--6--6--8--3v-----1--3--5--6--8--6--8----------------------------------

Stave 2:

E|-----------------------------------------------------------------------------------13--15------------
B|-------------------------------------------11--10--11--13v--11--13--15b13--13--15----------15--13v--\
G|-------------------7--8--7--8--10v-----10------------------------------------------------------------
D|--8--10--8--8--10------------------------------------------------------------------------------------
A|-----------------------------------------------------------------------------------------------------
E|-----------------------------------------------------------------------------------------------------

Stave 3:

E|------------------------------------15--15--15--15--15--15--17--15--17--18--18--20----------20----------
B|--11--10--11--10--------------------------------------------------------------------18--18------18--18--
G|------------------12--10--10/12-------------------------------------------------------------------------
D|--------------------------------------------------------------------------------------------------------
A|--------------------------------------------------------------------------------------------------------
E|--------------------------------------------------------------------------------------------------------

Stave 4:

E|--20--20--20--20--18--17--15--13--13v--10--10h13--10--8--6--6--5---------------------------
B|------------------------------------------------------------------8--6--6--8---------------
G|------------------------------------------------------------------------------7v--8--8/10--
D|-------------------------------------------------------------------------------------------
A|-------------------------------------------------------------------------------------------
E|-------------------------------------------------------------------------------------------

Stave 5:

E|---------------------------------------
B|--11--10--15----------11--10--15-------
G|--------------17v-----------------17v--
D|---------------------------------------
A|---------------------------------------
E|---------------------------------------

http://www.guitartabcreator.com
Guitar Tab Creator is intended to store guitar tab created through the tool. It currently does not support in-line text editing. Any text you place in here will be lost. If you need to comment on your tab, please use the "Tab Notes" section located below.