Jose Gonzalez - Heartbeats

Chords

01234567891011121314151617181920212223
E
B
G
D
A
E
B
0 1 2 3 4 5 6 7 8 9 10 11 12 13 14 15 16 17 18 19 20 21 22 23
(/) Slide Up  (\) Slide Down  (h) Hammer On  (p) Pull Off  (b) Bend (r) Release (v) Vibrato

Capo Fret 1

Main Riff

E |---------------------------------------------------------------------------------------------------------------------------------------------------
B |-------------------------------------------------------------------------------------------------------------0----------------------0--------------
Gb|----------------------3----------------3----------------------------3----------------3-----------0-----0-----------0----------0--------------------
D |-----0----------0----------------0-----------0-----0----------0----------------0-----------0--------4-----4-----4----------4-----4-----------------
A |--------4h5--5-----5-----4h5--5-----5-----0-----------4h5--5-----5-----4h5--5-----5-----0-----2-----------------------0h2--------------------------
D |--0---------------------------------------------0--------------------------------------------------------------------------------------------------

Main Riff cont.

E |-------------------------------------------------------
B |-------------------------------------------------------
Gb|-----------------------0----------------------0--------
D |-----------0-----0-----------0----------0-----------0--
A |-----4--------5-----5-----5-----4h5--5-----5-----0-----
D |--4-----5----------------------------------------------

Main Riff (alternative pattern for first part of main riff played in verses and chorus. Play the rest as normal)

E |------------------------------------------------
B |------------------------------------------------
Gb|----------------3----------------------3--------
D |-----0----------------0----------0-----------0--
A |--------4h5--5-----5-----4h5--5-----5-----0-----
D |--0---------------------------------------------

Bridge (x4)

E |--------------------------
B |--------------------------
Gb|-----------------0--------
D |-----0-----0-----------0--
A |--------7-----7-----7-----
D |--7-----------------------

Bridge cont. (x4)

E |--------------------------
B |--------------------------
Gb|-----------------0--------
D |-----0-----0-----------0--
A |--------5-----5-----5-----
D |--5-----------------------

Bridge (alternative version played once at the start of the second half of the bridge)

E |--------------------------
B |--------------------------
Gb|-----------------0--------
D |-----0-----7-----------0--
A |--------7-----7-----7-----
D |--7-----------------------

Bridge (Last section)

E |-----------------------------------------0-------------------------------------------------------
B |-----------------0-----------------------------------------------0-----------------------0-------
Gb|-----0-----0-----------0-----0-----0-----------0-----0-----0-----------0-----3-----0-------------
D |--------4-----4-----4-----------4-----4-----4-----------4-----4-----4-----------------------2p0--
A |--2-----------------------2-----------------------2-----------------------2-----2-----2-----0----
D |-------------------------------------------------------------------------------------------------

							http://www.guitartabcreator.com
Tab Notes
I believe this is how Jose Gonzalez plays this song (though he does hit an open 2nd string sometimes in the verses when hitting the 3rd fret on the 3rd string). A note is played on every 1/8th note but you must use dynamics to bring the melody forward.
Instruments
{"strings":[[[".",".",".",".",".",".",".",".",".",".",".",".",".",".",".",".",".",".",".",".",".",".",".",".",".",".",".",".",".",".",".",".",".",".",".",".",".",".",".",".",".",".",".",".",".",".",".",".",".",".",".","_","_","_","_"],[".",".",".",".",".",".",".",".",".",".",".",".",".",".",".",".",".",".",".",".",".",".",".",".",".",".",".",".",".",".",".",".",".",".",".",".",".",".",".",".",".",0,".",".",".",".",".",".",".",".",0,"_","_","_","_"],[".",".",".",".",".",".",".",".",3,".",".",".",".",".",".",3,".",".",".",".",".",".",".",".",".",".",3,".",".",".",".",".",".",3,".",".",".",0,".",0,".",".",".",0,".",".",".",".",0,".",".","_","_","_","_"],[".",0,".",".",".",".",0,".",".",".",".",".",".",0,".",".",".",0,".",0,".",".",".",".",0,".",".",".",".",".",".",0,".",".",".",0,".",".",4,".",4,".",4,".",".",".",".",4,".",4,".","_","_","_","_"],[".",".",4,"h",5,5,".",5,".",4,"h",5,5,".",5,".",0,".",".",".",4,"h",5,5,".",5,".",4,"h",5,5,".",5,".",0,".",2,".",".",".",".",".",".",".",0,"h",2,".",".",".",".","_","_","_","_"],[0,".",".",".",".",".",".",".",".",".",".",".",".",".",".",".",".",".",0,".",".",".",".",".",".",".",".",".",".",".",".",".",".",".",".",".",".",".",".",".",".",".",".",".",".",".",".",".",".",".",".","_","_","_","_"]],[[".",".",".",".",".",".",".",".",".",".",".",".",".",".",".",".",".",".","."],[".",".",".",".",".",".",".",".",".",".",".",".",".",".",".",".",".",".","."],[".",".",".",".",".",".",".",0,".",".",".",".",".",".",".",".",0,".","."],[".",".",".",0,".",0,".",".",".",0,".",".",".",".",0,".",".",".",0],[".",4,".",".",5,".",5,".",5,".",4,"h",5,5,".",5,".",0,"."],[4,".",5,".",".",".",".",".",".",".",".",".",".",".",".",".",".",".","."]],[[".",".",".",".",".",".",".",".",".",".",".",".",".",".",".",".",".","."],[".",".",".",".",".",".",".",".",".",".",".",".",".",".",".",".",".","."],[".",".",".",".",".",".",3,".",".",".",".",".",".",".",".",3,".","."],[".",0,".",".",".",".",".",".",0,".",".",".",".",0,".",".",".",0],[".",".",4,"h",5,5,".",5,".",4,"h",5,5,".",5,".",0,"."],[0,".",".",".",".",".",".",".",".",".",".",".",".",".",".",".",".","."]],[[".",".",".",".",".",".",".","."],[".",".",".",".",".",".",".","."],[".",".",".",".",".",0,".","."],[".",0,".",0,".",".",".",0],[".",".",7,".",7,".",7,"."],[7,".",".",".",".",".",".","."]],[[".",".",".",".",".",".",".","."],[".",".",".",".",".",".",".","."],[".",".",".",".",".",0,".","."],[".",0,".",0,".",".",".",0],[".",".",5,".",5,".",5,"."],[5,".",".",".",".",".",".","."]],[[".",".",".",".",".",".",".","."],[".",".",".",".",".",".",".","."],[".",".",".",".",".",0,".","."],[".",0,".",7,".",".",".",0],[".",".",7,".",7,".",7,"."],[7,".",".",".",".",".",".","."]],[[".",".",".",".",".",".",".",".",".",".",".",".",".",0,".",".",".",".",".",".",".",".",".",".",".",".",".",".",".",".",".",".","."],[".",".",".",".",".",0,".",".",".",".",".",".",".",".",".",".",".",".",".",".",".",0,".",".",".",".",".",".",".",0,".",".","."],[".",0,".",0,".",".",".",0,".",0,".",0,".",".",".",0,".",0,".",0,".",".",".",0,".",3,".",0,".",".",".",".","."],[".",".",4,".",4,".",4,".",".",".",4,".",4,".",4,".",".",".",4,".",4,".",4,".",".",".",".",".",".",".",2,"p",0],[2,".",".",".",".",".",".",".",2,".",".",".",".",".",".",".",2,".",".",".",".",".",".",".",2,".",2,".",2,".",0,".","."],[".",".",".",".",".",".",".",".",".",".",".",".",".",".",".",".",".",".",".",".",".",".",".",".",".",".",".",".",".",".",".",".","."]]],"numberofstrings":6,"notes":["E","B","FsGb","D","A","D"],"capo":"1","stringnotes":["E3","B2","Gb2","D2","A1","D1"],"comments":["Main Riff","Main Riff cont.","Main Riff (alternative pattern for first part of main riff played in verses and chorus. Play the rest as normal)","Bridge (x4)","Bridge cont. (x4)","Bridge (alternative version played once at the start of the second half of the bridge)","Bridge (Last section)"],"timing":[["W","W","W",null,"W","W","W","W","W","W",null,"W","W","W","W","W","W","W","W","W","W",null,"W","W","W","W","W","W",null,"W","W","W","W","W","W","W","W","W","W","W","W","W","W","W","E","W","E","E","E","E","E"],["W","W","W","W","W","W","W","W","W","W","W",null,"W","W","W","W","W","W","W"],["E","E","E",null,"E","E","E","E","E","E",null,"E","E","E","E","E","E","E"],["E","E","E","E","E","W","W","W","W"],["W","W","W","W","W","W","W","W"],["W","W","W","W","W","W","W","W"],["W","W","W","W","W","W","W","W","W","W","W","W","W","W","W","W","W","W","W","W","W","W","W","W","W","W","W","W","W","W","W",null,"W"]],"timingvisible":false,"tabcounter":33,"stave":6,"totalstaves":7,"instrument":"6guitar","selectedtuning":"Drop D","version":"13"}

Member for

2 months 4 weeks
Submitted by MikeyGTD on Fri, 2020-09-04 10:31