Purpose (Rhythm)

01234567891011121314151617181920212223
E
B
G
D
A
E
B
0 1 2 3 4 5 6 7 8 9 10 11 12 13 14 15 16 17 18 19 20 21 22 23
(/) Slide Up  (\) Slide Down  (h) Hammer On  (p) Pull Off  (b) Bend (r) Release (v) Vibrato

Intro:

D|--------------------------------------------------------------------------:|--
A|--------------------------------------------------------------------------:|--
F|--------------------------------------------------------------------------:|--
C|--------------------------------------------------------------------------:|--
G|---12--------10-----------10-----10--10--7--------7-----7--7--3-----3-----:|--
C|---12--------10-----------10-----10--10--7--------7-----7--7--3-----3-----:|--

Verse:

D|--|:-----------------------------------------------:|-------------------------------|:--------------------------------------------:|-------------------------------
A|--|:-----------------------------------------------:|-------------------------------|:--------------------------------------------:|-------------------------------
F|--|:-----------------------------------------------:|-------------------------------|:--------------------------------------------:|-------------------------------
C|--|:-----------------------------------------------:|-------------------------------|:--------------------------------------------:|-------------------------------
G|--|:--0--------0--0-----0--0-----0-----0--0--0-----:|--0-----0--0-----0--0-----0-0--|:--0--------0--0-----0--0-----0-----0--0--0--:|--0-----0--0-----0--0-----5----
C|--|:--0--------0--0-----0--0-----0-----0--0--0-----:|--0-----0--0-----0--0-----0-0--|:--0--------0--0-----0--0-----0-----0--0--0--:|--0-----0--0-----0--0-----5----

							http://www.guitartabcreator.com
Chords

Tab Notes
Verse: the tripets are 16th notes
genre
Instruments
{"strings":[[["_","_","_","_","_","_","_","_","_","_","_","_","_","_","_","_","_","_","_","_","_","_","_",":|"],["_","_","_","_","_","_","_","_","_","_","_","_","_","_","_","_","_","_","_","_","_","_","_",":|"],["_","_","_","_","_","_","_","_","_","_","_","_","_","_","_","_","_","_","_","_","_","_","_",":|"],["_","_","_","_","_","_","_","_","_","_","_","_","_","_","_","_","_","_","_","_","_","_","_",":|"],["/",12,"_","_",10,"_","_","_",10,"_",10,10,7,"_","_",7,"_",7,7,3,"_",3,"_",":|"],["/",12,"_","_",10,"_","_","_",10,"_",10,10,7,"_","_",7,"_",7,7,3,"_",3,"_",":|"]],[["|:","_","_","_","_","_","_","_","_","_","_","_","_","_","_","_",":|","_","_","_","_","_","_","_","_","_","_","_","|:","_","_","_","_","_","_","_","_","_","_","_","_","_","_",":|","_","_","_","_","_","_","_","_","_","_","_"],["|:","_","_","_","_","_","_","_","_","_","_","_","_","_","_","_",":|","_","_","_","_","_","_","_","_","_","_","_","|:","_","_","_","_","_","_","_","_","_","_","_","_","_","_",":|","_","_","_","_","_","_","_","_","_","_","_"],["|:","_","_","_","_","_","_","_","_","_","_","_","_","_","_","_",":|","_","_","_","_","_","_","_","_","_","_","_","|:","_","_","_","_","_","_","_","_","_","_","_","_","_","_",":|","_","_","_","_","_","_","_","_","_","_","_"],["|:","_","_","_","_","_","_","_","_","_","_","_","_","_","_","_",":|","_","_","_","_","_","_","_","_","_","_","_","|:","_","_","_","_","_","_","_","_","_","_","_","_","_","_",":|","_","_","_","_","_","_","_","_","_","_","_"],["|:",0,"_","_",0,0,"_",0,0,"_",0,"_",0,0,0,"_",":|",0,"_",0,0,"_",0,0,"_",0,"/",0,"|:",0,"_","_",0,0,"_",0,0,"_",0,"_",0,0,0,":|",0,"_",0,0,"_",0,0,"_",5,"b","_"],["|:",0,"_","_",0,0,"_",0,0,"_",0,"_",0,0,0,"_",":|",0,"_",0,0,"_",0,0,"_",0,"/",0,"|:",0,"_","_",0,0,"_",0,0,"_",0,"_",0,0,0,":|",0,"_",0,0,"_",0,0,"_",5,"b","_"]]],"numberofstrings":6,"notes":["D","A","F","C","G","C"],"capo":0,"stringnotes":["D3","A2","F2","C2","G1","C1"],"comments":["Intro:","Verse:"],"timing":[["W","W","W","W","W","W","W","W","W","W","W","W","W","W","W","W","W","W","W","W","W","W","W"],["W","W","W","W","W","W","W","W","W","W","W","W","W","W","W","W",null,"W","W","W","W","W","W","W","W","W","W","W",null,"W","W","W","W","W","W","W","W","W","W","W","W","W","W",null,"W","W","W","W","W","W","W","W","W","W","W"]],"timingvisible":false,"tabcounter":55,"stave":1,"totalstaves":2,"instrument":"6guitar","selectedtuning":"Drop C","version":"13"}

Member for

2 months
About Me
A guy trying to create music for jesus
Submitted by Mikey3412 on Tue, 2021-08-17 21:26