Purpose (Lead Guitar)

01234567891011121314151617181920212223
E
B
G
D
A
E
B
0 1 2 3 4 5 6 7 8 9 10 11 12 13 14 15 16 17 18 19 20 21 22 23
(/) Slide Up  (\) Slide Down  (h) Hammer On  (p) Pull Off  (b) Bend (r) Release (v) Vibrato

Intro:

D|-----------------------------------------------------
A|-----------------------------------------------------
F|-----------------------------------------------------
C|-----------------------------------------------------
G|-----------------------------------------------------
C|--0--2--3--0--2--3--0--2--3--0--2--3--0--2--3--5-----

Verse:

D|--|:-----------------------------------------------------------:|--------------------|:-----------------------------------------------------------:|-------------------------------------------------------------|:--------------------------------------------------------:|----------------------------------------------------------
A|--|:-----------------------------------------------------------:|--------------------|:-----------------------------------------------------------:|-------------------------------------------------------------|:--------------------------------------------------------:|--13--13-----13--13-----12--12-----12--12-----12--13--12--
F|--|:--7--9--10--7--9--10--7--9--10--7--9--10--7--9--10--12-----:|--------------------|:--7--9--10--7--9--10--7--9--10--7--9--10--7--9--10--12-----:|--10--10-----10--10-----12--12-----12--12-----12--13--12-----|:--7--9--10--7--9--10--7--9--10--7--9--10--7--9--10--12--:|----------------------------------------------------------
C|--|:-----------------------------------------------------------:|--------------------|:-----------------------------------------------------------:|-------------------------------------------------------------|:--------------------------------------------------------:|--10--10-----10--10-----9---9------9---9------9---10--9---
G|--|:-----------------------------------------------------------:|--------------------|:-----------------------------------------------------------:|-------------------------------------------------------------|:--------------------------------------------------------:|----------------------------------------------------------
C|--|:-----------------------------------------------------------:|--------------------|:-----------------------------------------------------------:|-------------------------------------------------------------|:--------------------------------------------------------:|----------------------------------------------------------

Pre-Chorus:

D|-----------------------------------------------------|--|-------------------------------------------------------------------------------------------------------------------------------------------------------10h12/17-----
A|-----------------------------------------------------|--|--------------------------------------------------------------------------------------------------------------------------------------------------------------------
F|--7--7--7--7--7--7--7--7--7--7--7--7--7--7--7--7--7--9--9--9--9--9--9--9--9--9--9--9--9--9--9--9--9--10--10--10--10--10--10--10--10--10--10--10--10--10--10--10--10--12--12--12--12--12--12--12--12--12--12------------------
C|-----------------------------------------------------|--|--------------------------------------------------------------------------------------------------------------------------------------------------------------------
G|-----------------------------------------------------|--|--------------------------------------------------------------------------------------------------------------------------------------------------------------------
C|-----------------------------------------------------|--|--------------------------------------------------------------------------------------------------------------------------------------------------------------------

Chorus:

D|--------------------------------------------------/18--------------------18\13-----------------------12--12--10--12--------12--12--10--12--10h12/17-----------------------------------------/18---------------/20------------------------------12--12--10--12--------12--12--10--12--------10-----12---------
A|-----------------------------------------15-----17---------------------------------------------------------------------------------------------------------------------------------15-----17--------------------------18-------------------------------------------------------------------------------------
F|-------------------------------------------------------------------------------------------------------------------------------------------------------------------------------------------------------------------------------------------------------------------------------------------------------------
C|---------------------------------------------------------------------------------------------------------------------------------------------------------------------------------------------------------------------------------------------------------------------------------------------------------12--
G|-------------------------------------------------------------------------------------------------------------------------------------------------------------------------------------------------------------------------------------------------------------------------------------------------------------
C|-------------------------------------------------------------------------------------------------------------------------------------------------------------------------------------------------------------------------------------------------------------------------------------------------------------

Bridge:

D|--|:---------------------------------------------------------------------------------------------------:|----------------------------------------------------------------------------|:--------------------------------------------------------------------------------------------:|--
A|--|:---------------------------------------------------------------------------------------------------:|----------------------------------------------------------------------------|:--------------------------------------------------------------------------------------------:|--
F|--|:---------------------------------------------------------------------------------------------------:|----------------------------------------------------------------------------|:--------------------------------------------------------------------------------------------:|--
C|--|:---------------------------------------------------------------------------------------------------:|----------------------------------------------------------------------------|:--------------------------------------------------------------------------------------------:|--
G|--|:---------------------------------------------------------------------------------------------------:|----------------------------------------------------------------------------|:--------------------------------------------------------------------------------------------:|--
C|--|:--0--------0-----0--0--0--10-----0-----0--0-----------0--------0-----0--0--0--3-----0-----0--0-----:|--0--------0-----0--0--0--10-----0-----0--0--------0--3--5--6--5--6--7--10--|:--0--0--0--0--0--0--0--10-----0-----10-----12-----0--0--0--0--0--0--3-----0-----3-----5-----:|--

Ending:

D|--|:-------------------------------------------------:|---------------
A|--|:-------------------------------------------------:|---------------
F|--|:-------------------------------------------------:|---------/7h9--
C|--|:-------------------------------------------------:|---------------
G|--|:-------------------------------------------------:|---------------
C|--|:--0--0-----0--0-----0--0-----0--0-----2/3--3--3--:|--0------------

							http://www.guitartabcreator.com
Chords

Tab Notes
Verse: repeat the 7 9 10 12 part 2 times (playing it three times in total) Bridge: play 1st section three times, then play it again during the rap four times, the last part then till the end (X4) Ending: Bared section (X4)
genre
Instruments
{"strings":[[[".","_","_","_","_","_","_","_","_","_","_","_","_","_","_","_","_"],[".","_","_","_","_","_","_","_","_","_","_","_","_","_","_","_","_"],[".","_","_","_","_","_","_","_","_","_","_","_","_","_","_","_","_"],[".","_","_","_","_","_","_","_","_","_","_","_","_","_","_","_","_"],[".","_","_","_","_","_","_","_","_","_","_","_","_","_","_","_","_"],[0,2,3,0,2,3,0,2,3,0,2,3,0,2,3,5,"_"]],[["|:","_","_","_","_","_","_","_","_","_","_","_","_","_","_","_","_","_",":|","_","_","_","_","_","_","|:","_","_","_","_","_","_","_","_","_","_","_","_","_","_","_","_","_",":|","_","_","_","_","_","_","_","_","_","_","_","_","_","_","_","_","|:","_","_","_","_","_","_","_","_","_","_","_","_","_","_","_","_",":|","_","_","_","_","_","_","_","_","_","_","_","_","_","_","_"],["|:","_","_","_","_","_","_","_","_","_","_","_","_","_","_","_","_","_",":|","_","_","_","_","_","_","|:","_","_","_","_","_","_","_","_","_","_","_","_","_","_","_","_","_",":|","_","_","_","_","_","_","_","_","_","_","_","_","_","_","_","_","|:","_","_","_","_","_","_","_","_","_","_","_","_","_","_","_","_",":|",13,13,"_",13,13,"_",12,12,"_",12,12,"_",12,13,12],["|:",7,9,10,7,9,10,7,9,10,7,9,10,7,9,10,12,"_",":|","_","_","_","_","_","_","|:",7,9,10,7,9,10,7,9,10,7,9,10,7,9,10,12,"_",":|",10,10,"_",10,10,"_",12,12,"_",12,12,"_",12,13,12,"_","|:",7,9,10,7,9,10,7,9,10,7,9,10,7,9,10,12,":|","_","_","_","_","_","_","_","_","_","_","_","_","_","_","_"],["|:","_","_","_","_","_","_","_","_","_","_","_","_","_","_","_","_","_",":|","_","_","_","_","_","_","|:","_","_","_","_","_","_","_","_","_","_","_","_","_","_","_","_","_",":|","_","_","_","_","_","_","_","_","_","_","_","_","_","_","_","_","|:","_","_","_","_","_","_","_","_","_","_","_","_","_","_","_","_",":|",10,10,"_",10,10,"_",9,9,"_",9,9,"_",9,10,9],["|:","_","_","_","_","_","_","_","_","_","_","_","_","_","_","_","_","_",":|","_","_","_","_","_","_","|:","_","_","_","_","_","_","_","_","_","_","_","_","_","_","_","_","_",":|","_","_","_","_","_","_","_","_","_","_","_","_","_","_","_","_","|:","_","_","_","_","_","_","_","_","_","_","_","_","_","_","_","_",":|","_","_","_","_","_","_","_","_","_","_","_","_","_","_","_"],["|:","_","_","_","_","_","_","_","_","_","_","_","_","_","_","_","_","_",":|","_","_","_","_","_","_","|:","_","_","_","_","_","_","_","_","_","_","_","_","_","_","_","_","_",":|","_","_","_","_","_","_","_","_","_","_","_","_","_","_","_","_","|:","_","_","_","_","_","_","_","_","_","_","_","_","_","_","_","_",":|","_","_","_","_","_","_","_","_","_","_","_","_","_","_","_"]],[[".","_","_","_","_","_","_","_","_","_","_","_","_","_","_","_","_","|","|","_","_","_","_","_","_","_","_","_","_","_","_","_","_","_","_","_","_","_","_","_","_","_","_","_","_","_","_","_","_","_","_","_","_","_","_","_","_","_","_","_",10,"h",12,"/",17,"_"],[".","_","_","_","_","_","_","_","_","_","_","_","_","_","_","_","_","|","|","_","_","_","_","_","_","_","_","_","_","_","_","_","_","_","_","_","_","_","_","_","_","_","_","_","_","_","_","_","_","_","_","_","_","_","_","_","_","_","_","_","_","_","_","_","_","_"],[7,7,7,7,7,7,7,7,7,7,7,7,7,7,7,7,7,9,9,9,9,9,9,9,9,9,9,9,9,9,9,9,9,10,10,10,10,10,10,10,10,10,10,10,10,10,10,10,10,12,12,12,12,12,12,12,12,12,12,"_","_","_","_","_","_","_"],[".","_","_","_","_","_","_","_","_","_","_","_","_","_","_","_","_","|","|","_","_","_","_","_","_","_","_","_","_","_","_","_","_","_","_","_","_","_","_","_","_","_","_","_","_","_","_","_","_","_","_","_","_","_","_","_","_","_","_","_","_","_","_","_","_","_"],[".","_","_","_","_","_","_","_","_","_","_","_","_","_","_","_","_","|","|","_","_","_","_","_","_","_","_","_","_","_","_","_","_","_","_","_","_","_","_","_","_","_","_","_","_","_","_","_","_","_","_","_","_","_","_","_","_","_","_","_","_","_","_","_","_","_"],[".","_","_","_","_","_","_","_","_","_","_","_","_","_","_","_","_","|","|","_","_","_","_","_","_","_","_","_","_","_","_","_","_","_","_","_","_","_","_","_","_","_","_","_","_","_","_","_","_","_","_","_","_","_","_","_","_","_","_","_","_","_","_","_","_","_"]],[["_","_","_","_","_","_","_","_","_","_","_","_","_","_","_","_","/",18,"_","_","_","_","_","_",18,"\\",13,"_","_","_","_","_","_","_",12,12,10,12,"_","_",12,12,10,12,10,"h",12,"/",17,"_","_","_","_","_","_","_","_","_","_","_","_","_","/",18,"_","_","_","_","_","/",20,"_","_","_","_","_","_","_","_","_",12,12,10,12,"_","_",12,12,10,12,"_","_",10,"_",12,"_","_"],["_","_","_","_","_","_","_","_","_","_","_","_","_",15,"_",17,"_","_","_","_","_","_","_","_","_","_","_","_","_","_","_","_","_","_","_","_","_","_","_","_","_","_","_","_","_","_","_","_","_","_","_","_","_","_","_","_","_","_","_",15,"_",17,"_","_","_","_","_","_","_","_","_","_",18,"_","_","_","_","_","_","_","_","_","_","_","_","_","_","_","_","_","_","_","_","_","_","_","_"],["_","_","_","_","_","_","_","_","_","_","_","_","_","_","_","_","_","_","_","_","_","_","_","_","_","_","_","_","_","_","_","_","_","_","_","_","_","_","_","_","_","_","_","_","_","_","_","_","_","_","_","_","_","_","_","_","_","_","_","_","_","_","_","_","_","_","_","_","_","_","_","_","_","_","_","_","_","_","_","_","_","_","_","_","_","_","_","_","_","_","_","_","_","_","_","_","_"],["_","_","_","_","_","_","_","_","_","_","_","_","_","_","_","_","_","_","_","_","_","_","_","_","_","_","_","_","_","_","_","_","_","_","_","_","_","_","_","_","_","_","_","_","_","_","_","_","_","_","_","_","_","_","_","_","_","_","_","_","_","_","_","_","_","_","_","_","_","_","_","_","_","_","_","_","_","_","_","_","_","_","_","_","_","_","_","_","_","_","_","_","_","_","_","_",12],["_","_","_","_","_","_","_","_","_","_","_","_","_","_","_","_","_","_","_","_","_","_","_","_","_","_","_","_","_","_","_","_","_","_","_","_","_","_","_","_","_","_","_","_","_","_","_","_","_","_","_","_","_","_","_","_","_","_","_","_","_","_","_","_","_","_","_","_","_","_","_","_","_","_","_","_","_","_","_","_","_","_","_","_","_","_","_","_","_","_","_","_","_","_","_","_","_"],["_","_","_","_","_","_","_","_","_","_","_","_","_","_","_","_","_","_","_","_","_","_","_","_","_","_","_","_","_","_","_","_","_","_","_","_","_","_","_","_","_","_","_","_","_","_","_","_","_","_","_","_","_","_","_","_","_","_","_","_","_","_","_","_","_","_","_","_","_","_","_","_","_","_","_","_","_","_","_","_","_","_","_","_","_","_","_","_","_","_","_","_","_","_","_","_","_"]],[["|:","_","_","_","_","_","_","_","_","_","_","_","_","_","_","_","_","_","_","_","_","_","_","_","_","_","_","_","_","_","_","_","_",":|","_","_","_","_","_","_","_","_","_","_","_","_","_","_","_","_","_","_","_","_","_","_","_","_","|:","_","_","_","_","_","_","_","_","_","_","_","_","_","_","_","_","_","_","_","_","_","_","_","_","_","_","_","_","_",":|"],["|:","_","_","_","_","_","_","_","_","_","_","_","_","_","_","_","_","_","_","_","_","_","_","_","_","_","_","_","_","_","_","_","_",":|","_","_","_","_","_","_","_","_","_","_","_","_","_","_","_","_","_","_","_","_","_","_","_","_","|:","_","_","_","_","_","_","_","_","_","_","_","_","_","_","_","_","_","_","_","_","_","_","_","_","_","_","_","_","_",":|"],["|:","_","_","_","_","_","_","_","_","_","_","_","_","_","_","_","_","_","_","_","_","_","_","_","_","_","_","_","_","_","_","_","_",":|","_","_","_","_","_","_","_","_","_","_","_","_","_","_","_","_","_","_","_","_","_","_","_","_","|:","_","_","_","_","_","_","_","_","_","_","_","_","_","_","_","_","_","_","_","_","_","_","_","_","_","_","_","_","_",":|"],["|:","_","_","_","_","_","_","_","_","_","_","_","_","_","_","_","_","_","_","_","_","_","_","_","_","_","_","_","_","_","_","_","_",":|","_","_","_","_","_","_","_","_","_","_","_","_","_","_","_","_","_","_","_","_","_","_","_","_","|:","_","_","_","_","_","_","_","_","_","_","_","_","_","_","_","_","_","_","_","_","_","_","_","_","_","_","_","_","_",":|"],["|:","_","_","_","_","_","_","_","_","_","_","_","_","_","_","_","_","_","_","_","_","_","_","_","_","_","_","_","_","_","_","_","_",":|","_","_","_","_","_","_","_","_","_","_","_","_","_","_","_","_","_","_","_","_","_","_","_","_","|:","_","_","_","_","_","_","_","_","_","_","_","_","_","_","_","_","_","_","_","_","_","_","_","_","_","_","_","_","_",":|"],["|:",0,"_","_",0,"_",0,0,0,10,"_",0,"_",0,0,"_","_","_",0,"_","_",0,"_",0,0,0,3,"_",0,"_",0,0,"_",":|",0,"_","_",0,"_",0,0,0,10,"_",0,"_",0,0,"_","_",0,3,5,6,5,6,7,10,"|:",0,0,0,0,0,0,0,10,"_",0,"_",10,"_",12,"_",0,0,0,0,0,0,3,"_",0,"_",3,"_",5,"_",":|"]],[["|:","_","_","_","_","_","_","_","_","_","_","_","_","_","_","_","_","_",":|","_","_","_","_","_","_","_"],["|:","_","_","_","_","_","_","_","_","_","_","_","_","_","_","_","_","_",":|","_","_","_","_","_","_","_"],["|:","_","_","_","_","_","_","_","_","_","_","_","_","_","_","_","_","_",":|","_","_","_","/",7,"h",9],["|:","_","_","_","_","_","_","_","_","_","_","_","_","_","_","_","_","_",":|","_","_","_","_","_","_","_"],["|:","_","_","_","_","_","_","_","_","_","_","_","_","_","_","_","_","_",":|","_","_","_","_","_","_","_"],["|:",0,0,"_",0,0,"_",0,0,"_",0,0,"_",2,"/",3,3,3,":|",0,"_","_","_","_","_","_"]]],"numberofstrings":6,"notes":["D","A","F","C","G","C"],"capo":0,"stringnotes":["D3","A2","F2","C2","G1","C1"],"comments":["Intro:","Verse:","Pre-Chorus:","Chorus:","Bridge:","Ending:"],"timing":[["W","W","W","W","W","W","W","W","W","W","W","W","W","W","W","W","W"],[null,"W","W","W","W","W","W","W","W","W","W","W","W","W","W","W","W","W",null,"W","W","W","W","W","W",null,"W","W","W","W","W","W","W","W","W","W","W","W","W","W","W","W","W",null,"W","W","W","W","W","W","W","W","W","W","W","W","W","W","W","W",null,"W","W","W","W","W","W","W","W","W","W","W","W","W","W","W","W","W","W","W","W","W","W","W","W","W","W","W","W","W","W","W","W","W"],["W","W","W","W","W","W","W","W","W","W","W","W","W","W","W","W","W","W",null,"W","W","W","W","W","W","W","W","W","W","W","W","W","W","W","W","W","W","W","W","W","W","W","W","W","W","W","W","W","W","W","W","W","W","W","W","W","W","W","W","W","W","W","W","W","W","W"],["W","W","W","W","W","W","W","W","W","W","W","W","W","W","W","W","W","W","W","W","W","W","W","W","W","W","W","W","W","W","W","W","W","W","W","W","W","W","W","W","W","W","W","W","W","W","W","W","W","W","W","W","W","W","W","W","W","W","W","W","W","W","W","W","W","W","W","W","W","W","W","W","W","W","W","W","W","W","W","W","W","W","W","W","W","W","W","W","W","W","W","W","W","W","W","W","W"],["W","W","W","W","W","W","W","W","W","W","W","W","W","W","W","W","W","W","W","W","W","W","W","W","W","W","W","W","W","W","W","W","W",null,"W","W","W","W","W","W","W","W","W","W","W","W","W","W","W","W","W","W","W","W","W","W","W","W",null,"W","W","W","W","W","W","W","W","W","W","W","W","W","W","W","W","W","W","W","W","W","W","W","W","W","W","W","W","W"],["W","W","W","W","W","W","W","W","W","W","W","W","W","W","W","W","W","W",null,"W","W","W","W","W","W","W","W"]],"timingvisible":false,"tabcounter":26,"stave":5,"totalstaves":6,"instrument":"6guitar","selectedtuning":"Drop C","version":"13"}

Member for

1 month 3 weeks
About Me
A guy trying to create music for jesus
Submitted by Mikey3412 on Wed, 2021-08-18 00:24