Sound will begin in 5 seconds

Now

01234567891011121314151617181920212223
E
B
G
D
A
E
B
0 1 2 3 4 5 6 7 8 9 10 11 12 13 14 15 16 17 18 19 20 21 22 23
Song Science #1: How Pros Use 6 Chords to Write Hit Songs
(/) Slide Up  (\) Slide Down  (h) Hammer On  (p) Pull Off  (b) Bend (r) Release (v) Vibrato

Stave 1:

D|-------------------------------------------------------------------------------------
A|-------------------------------------------------------------------------------------
F|-------------------------------------------------------------------------------------
C|----------7-----7--------7-----7--------7--8-----7-----7--------7-----7--------7--5--
G|----------5-----5--------5-----5--------5--5-----5-----5--------5-----5--------5--5--
C|----0--0-----0-----0--0-----0-----0--0--------0-----0-----0--0-----0-----0--0--------

Stave 2:

D|--------------------------------------------------------------------------------
A|--------------------------------------------------------------------------------
F|--------------------------------------------------------------------------------
C|-----7-----7--------7-----7--------7--8--5--5--5--5--5--5--3--3--3--3--1--1--1--
G|-----5-----5--------5-----5--------5--5--5--5--5--5--5--5--3--3--3--3--1--1--1--
C|--0-----0-----0--0-----0-----0--0--------5--5--5--5--5--5--3--3--3--3--1--1--1--

Stave 3:

D|----------------------------------------------------------------------
A|----------------------------------------------------------------------
F|----------------------------------------------------------------------
C|----8--8--8--10--10--10--8--------7--7--7--7--7--5--5--5--5--7--7--7--
G|----8--8--8--8---8---8---8--0-----5--5--5--5--5--3--3--3--3--5--5--5--
C|----8--8--8--8---8---8---8--0--0--0-----------------------------------

Stave 4:

D|-----------------------------------------------------------------------------
A|-----------------------------------------------------------------------------
F|-----------------------------------------------------------------------------
C|----------5--5-----5--5--5--5--5--7--7--7--7--7--10--10--10--10--10--10--10--
G|----5--5--5--5--5--5--5--5--5--5--7--7--7--7-----10--10--10--10--10--10--10--
C|----5--5--5--5--5--5--5--5--5--5--7--7--7--7--7--10--10--10--10--10--10--10--

Stave 5:

D|---------------------------------------------------------
A|---------------------------------------------------------
F|---------------------------------------------------------
C|-------10--12--10--12-----10--12--10--12-----10--12--13--
G|----0--10--12--10------0--10--12--10--12--0--10--12--13--
C|----0--10--12--10--12--0--10--12--10--12--0--10--12--13--

Stave 6:

D|------------------13p12--------------------------13p12------17--
A|----------15-------------15--------------15-------------15------
F|------14------14-------------14------14------14-----------------
C|--12-----------------------------12-----------------------------
G|----------------------------------------------------------------
C|----------------------------------------------------------------

http://www.guitartabcreator.com
Guitar Tab Creator is intended to store guitar tab created through the tool. It currently does not support in-line text editing. Any text you place in here will be lost. If you need to comment on your tab, please use the "Tab Notes" section located below.