Sound will begin in 5 seconds

Limber

01234567891011121314151617181920212223
E
B
G
D
A
E
B
0 1 2 3 4 5 6 7 8 9 10 11 12 13 14 15 16 17 18 19 20 21 22 23
Song Science #1: How Pros Use 6 Chords to Write Hit Songs
(/) Slide Up  (\) Slide Down  (h) Hammer On  (p) Pull Off  (b) Bend (r) Release (v) Vibrato

Stave 1:

B |----------------------------------------------------------------
Gb|----------------------------------------------------------------
D |-----------7/8-7--8--11/12-11--8-----------7/8-7--8--5--5--5/8--
A |----------------------------------------------------------------
E |-----------5-6\5--6--9--10\9---6-----------5-6\5--6--3--3--3-6--
A |--0--0--0-------------------------0--0--0-----------------------

Stave 2:

B |-------------------------------
Gb|-------------------------------
D |--7v--7v--6--6--7--9--9b10--9--
A |-------------------------------
E |-------------------------------
A |-------------------------------

Stave 3:

B |-------------------------------------------------------------------------------
Gb|-------------------------------------------------------------------------------
D |--7--------------------7-----------------------------------------7--------------
A |-------------------------------------------------------------------------------
E |--5-----------------5-----------------5--6--5-----------------5-----------------
A |----0--0--0--0--0--------0--0--0--0-----------0--0--0--0--0--------0--0--0--0--

Stave 4:

B |----------------------------------------------------------------------
Gb|----------------------------------------------------------------------
D |----------------------------------------------------------------------
A |--8--8--8--8--8--8--10--10--10--10--8--7--8--8--8--8--8--8--8--10--13--
E |--8--8--8--8--8--8--8---8---8---8---8--7--8--8--8--8--8--8--8--10--13--
A |--8--8--8--8--8--8--8---8---8---8---8--7--8--8--8--8--8--8--8--10--13--

Stave 5:

B |----------------------------------------------------------------------------------
Gb|----------------------------------------------------------------------------------
D |----------------------------------------------------------------------------------
A |----7--7--7--7--7--7--12--10--3--5--7h8--7--7--7--7--7--7-----3--5--5--5--7h8--7--
E |----7--7--7--7--7--7--12--10--3--5--7-8--7--7--7--7--7--7--3--3--5--5--5--7-8--7--
A |----7--7--7--7--7--7--12--10--3--5--7-8--7--7--7--7--7--7--3--3--5--5--5--7-8--7--

Stave 6:

B |------------------------------------------------------------------------------
Gb|------------------------------------------------------------------------------
D |------------------------------------------------------------------------------
A |----3--1----------------------------------------------------------------------
E |----3--1----------------------------------------------------------------------
A |----3--1--0--0--0--0--0--0--0--0--0--0--0--0--0--0--0--0--1v--0--1--4v--1--0--

http://www.guitartabcreator.com
Guitar Tab Creator is intended to store guitar tab created through the tool. It currently does not support in-line text editing. Any text you place in here will be lost. If you need to comment on your tab, please use the "Tab Notes" section located below.