Sound will begin in 5 seconds

C'est la guerre

Chords
01234567891011121314151617181920212223
E
B
G
D
A
E
B
0 1 2 3 4 5 6 7 8 9 10 11 12 13 14 15 16 17 18 19 20 21 22 23
Song Science #1: How Pros Use 6 Chords to Write Hit Songs
(/) Slide Up  (\) Slide Down  (h) Hammer On  (p) Pull Off  (b) Bend (r) Release (v) Vibrato

Stave 1:

E|--0--------------------|--0--------------------|--0--------------------|--0--------------------|--
B|--0--------------------|--0--------------------|--0--------------------|--0--------------------|--
G|--1-----------1--------|--1-----------1--------|--1-----------1--------|--1-----------1--------|--
D|--2--------2-----2-----|--2--------2-----2-----|--2--------2-----2-----|--2--------2-----2-----|--
A|--2-----2-----------2--|--2-----2-----------2--|--2-----2-----------2--|--2-----2-----------1--|--
E|--0--0-----------------|--0--0-----------------|--0--0-----------------|--0--0-----------------|--

Stave 2:

E|--0--------------------|--5--------------------|--1--------------------|--3--------------------|--
B|--0--------------------|--5--------------------|--1--------------------|--3--------------------|--
G|--1--------------------|--6--------------------|--2--------------------|--4--------------------|--
D|--2--------------------|--7--------------------|--3--------------------|--5--------------------|--
A|--2--------------------|--7--------------------|--3--------------------|--5--------------------|--
E|--0--------------------|--5--------------------|--1--------------------|--3--------------------|--

Stave 3:

E|--0--------------------|--5--------------------|--8---------------------|--3--------------------|--
B|--0--------------------|--5--------------------|--8---------------------|--3--------------------|--
G|--1--------------------|--6--------------------|--9---------------------|--4--------------------|--
D|--2--------------------|--7--------------------|--10--------------------|--5--------------------|--
A|--2--------------------|--7--------------------|--10--------------------|--5--------------------|--
E|--0--------------------|--5--------------------|--8---------------------|--3--------------------|--

Stave 4:

E|--0--------------------|--5--------------------|--1--------------------|--3--------------------|--
B|--0--------------------|--5--------------------|--1--------------------|--3--------------------|--
G|--1--------------------|--6--------------------|--2--------------------|--4--------------------|--
D|--2--------------------|--7--------------------|--3--------------------|--5--------------------|--
A|--2--------------------|--7--------------------|--3--------------------|--5--------------------|--
E|--0--------------------|--5--------------------|--1--------------------|--3--------------------|--

Stave 5:

E|--0--------------------|--5--------------------|--8---------------------|--3--------------------|--
B|--0--------------------|--5--------------------|--8---------------------|--3--------------------|--
G|--1--------------------|--6--------------------|--9---------------------|--4--------------------|--
D|--2--------------------|--7--------------------|--10--------------------|--5--------------------|--
A|--2--------------------|--7--------------------|--10--------------------|--5--------------------|--
E|--0--------------------|--5--------------------|--8---------------------|--3--------------------|--

Stave 6:

E|--0--------------------|--0--------------------|--4-----4-----4-----4--|--4-----4-----4-----4--|--
B|--0--------------------|--0--------------------|--6-----6-----6-----6--|--4-----4-----4-----4--|--
G|--1-----------1--------|--1-----------1--------|--6-----6-----6-----6--|--5-----5-----5-----5--|--
D|--2--------2-----2-----|--2--------2-----2-----|--6-----6-----6-----6--|--6-----6-----6-----6--|--
A|--2-----2-----------2--|--2-----2-----------2--|--4-----4-----4-----4--|--6-----6-----6-----6--|--
E|--0--0-----------------|--0--0-----------------|--4-----4-----4-----4--|--4-----4-----4-----4--|--

Stave 7:

E|--------2-----2-----2--|--2-----2-----2-----2--|--0--------------------|--0-----------
B|--------4-----4-----4--|--2-----2-----2-----2--|--0--------------------|--0-----------
G|--------4-----4-----4--|--3-----3-----3-----3--|--1--------------------|--1-----------
D|--------4-----4-----4--|--4-----4-----4-----4--|--2--------------------|--2-----------
A|--------2-----2-----2--|--4-----4-----4-----4--|--2--------------------|--2-----------
E|--------2-----2-----2--|--2-----2-----2-----2--|--0--------------------|--0-----------

http://www.guitartabcreator.com
Guitar Tab Creator is intended to store guitar tab created through the tool. It currently does not support in-line text editing. Any text you place in here will be lost. If you need to comment on your tab, please use the "Tab Notes" section located below.