Sound will begin in 5 seconds

This Grandeur by Paths

Chords
01234567891011121314151617181920212223
E
B
G
D
A
E
B
0 1 2 3 4 5 6 7 8 9 10 11 12 13 14 15 16 17 18 19 20 21 22 23
Song Science #1: How Pros Use 6 Chords to Write Hit Songs
(/) Slide Up  (\) Slide Down  (h) Hammer On  (p) Pull Off  (b) Bend (r) Release (v) Vibrato

Stave 1:

E|-------------------------
B|-------------------------
G|--4--5--4--4--------------
D|--2--2--2--2--2--2--2--2--
A|--3--3--3--3--3--3--3--3--
E|-------------4--0--4--0--

Stave 2:

E|-----------------
B|-----------------
G|-----------------
D|--7--9--10--9--4--
A|--0--0--0---0--0--
E|-----------------

Stave 3:

E|--_-----------------------------
B|--_-----------------------------
G|--_-----------------------------
D|--9---11--12--11--7--11--12--11--
A|--10--10--10--10--5--9---9---9---
E|--_-----------------------------

Stave 4:

E|--_---------------
B|--_---------------
G|--9------9---------
D|--10--9--10--9--5--
A|--0---7--0---7--3--
E|--_---------------

Stave 5:

E|----------
B|----------
G|----------
D|--6--------
A|--7--8--4--
E|--0--6--2--

http://www.guitartabcreator.com
Guitar Tab Creator is intended to store guitar tab created through the tool. It currently does not support in-line text editing. Any text you place in here will be lost. If you need to comment on your tab, please use the "Tab Notes" section located below.