Sound will begin in 5 seconds

quiero ser tu sombra parte 1

01234567891011121314151617181920212223
E
B
G
D
A
E
B
0 1 2 3 4 5 6 7 8 9 10 11 12 13 14 15 16 17 18 19 20 21 22 23
Song Science #1: How Pros Use 6 Chords to Write Hit Songs
(/) Slide Up  (\) Slide Down  (h) Hammer On  (p) Pull Off  (b) Bend (r) Release (v) Vibrato

Stave 1:

E|------------------8-----8-----8-----8--10--8--7--6--7--
B|-------------------------------------------------------
G|--9--10--9--8--9-----9-----9-----9---------------------
D|-------------------------------------------------------
A|-------------------------------------------------------
E|-------------------------------------------------------

Stave 2:

E|-----------------7-----7-----7-----7--8--7--5--4--5--
B|-----------------------------------------------------
G|--7--9--7--6--7-----7-----7-----7--------------------
D|-----------------------------------------------------
A|-----------------------------------------------------
E|-----------------------------------------------------

Stave 3:

E|-----------------5-----5--4--3--2--3--5--3--1--0--1--
B|-----------------------------------------------------
G|--5--7--5--4--5-----5--------------------------------
D|-----------------------------------------------------
A|-----------------------------------------------------
E|-----------------------------------------------------

Stave 4:

E|--1--0-----------------------------0--1--0-----------------0--5--
B|--------3--1--0-----------0--1--3-----------3--1--0-----1--------
G|-----------------2--1--2-----------------------------2-----------
D|-----------------------------------------------------------------
A|-----------------------------------------------------------------
E|-----------------------------------------------------------------

Stave 5:

E|--12--12--12--12--10--0--10--8--0--8--7--0--7--5--0--5--3--0--3--1--0--1--
B|--------------------------------------------------------------------------
G|--------------------------------------------------------------------------
D|--------------------------------------------------------------------------
A|--------------------------------------------------------------------------
E|--------------------------------------------------------------------------

Stave 6:

E|--1--0-----------------------------0--1--0-----------------0--5--
B|--------3--1--0-----------0--1--3-----------3--1--0-----0--------
G|-----------------2--1--2-----------------------------2-----------
D|-----------------------------------------------------------------
A|-----------------------------------------------------------------
E|-----------------------------------------------------------------

http://www.guitartabcreator.com
Guitar Tab Creator is intended to store guitar tab created through the tool. It currently does not support in-line text editing. Any text you place in here will be lost. If you need to comment on your tab, please use the "Tab Notes" section located below.