Sound will begin in 5 seconds

Singing through the storm

01234567891011121314151617181920212223
E
B
G
D
A
E
B
0 1 2 3 4 5 6 7 8 9 10 11 12 13 14 15 16 17 18 19 20 21 22 23
Song Science #1: How Pros Use 6 Chords to Write Hit Songs
(/) Slide Up  (\) Slide Down  (h) Hammer On  (p) Pull Off  (b) Bend (r) Release (v) Vibrato

Stave 1:

E|--------------0-----------------------------0-------------------------------------------------------------
B|--------6--------6--------------------6--------6-----------5--8/10---------10---------8h10------8---------
G|-----5-----------------5-----5-----5-----------------5------------------0----------0-------------------0--
D|--0--------0--------0-----0-----8--------8--------8-----8-----------10---------10-----------10-----10-----
A|----------------------------------------------------------------------------------------------------------
E|----------------------------------------------------------------------------------------------------------

Stave 2:

E|---------------------------------------------------------------------------5--|-----------------0-----------
B|--8---------8------------------8----------8----------------8-----8------------|-----------6-----------------
G|---------0---------10------10---------10-----10---------9-----9-----9---------|--------5-----------5-----5--
D|-----10--------10------10---------10-------------0--10-----------------10-----|-----0--------0--------------
A|------------------------------------------------------------------------------|-----------------------------
E|------------------------------------------------------------------------------|--0--------------------0-----

Stave 3:

E|--
B|--
G|--
D|--
A|--
E|--

http://www.guitartabcreator.com
Guitar Tab Creator is intended to store guitar tab created through the tool. It currently does not support in-line text editing. Any text you place in here will be lost. If you need to comment on your tab, please use the "Tab Notes" section located below.