Sound will begin in 5 seconds

Midnight 30 lead guitar

01234567891011121314151617181920212223
E
B
G
D
A
E
B
0 1 2 3 4 5 6 7 8 9 10 11 12 13 14 15 16 17 18 19 20 21 22 23
Song Science #1: How Pros Use 6 Chords to Write Hit Songs
(/) Slide Up  (\) Slide Down  (h) Hammer On  (p) Pull Off  (b) Bend (r) Release (v) Vibrato

Stave 1:

E|-----------7---7---7-12-12-12-12-11-9-7-
B|-5-5-7-5-7---7---7----------------------
G|----------------------------------------
D|----------------------------------------
A|----------------------------------------
E|----------------------------------------

Stave 2:

E|-------2----------5----------7------------
B|---3----------5----------5--------------3-
G|-4---4------2---2------7---7--------2-----
D|----------------------------------4---4---
A|------------------------------------------
E|------------------------------------------

Stave 3:

E|----------------------------------------------------------
B|----------------------------------------------------------
G|----------------------------------------------------------
D|----------------------------------------------------------
A|----------------------------------------------------------
E|----------------------------------------------------------

Stave 4:

E|-------------5-5-5-5-5-5-5-5-5-5-------------------12-12-12-12-12-12-12-12-12-12-
B|-------3-3-3------------------------------10-10-10-------------------------------
G|-4-4-4---------------------------11-11-11----------------------------------------
D|---------------------------------------------------------------------------------
A|---------------------------------------------------------------------------------
E|---------------------------------------------------------------------------------

Stave 5:

E|-------------2-5-7-7-7-7-5-2------------------------9-10-12-10-9-10-9-10-12-10-9-5h7-7-5h7h
B|-------2-5-7-----------------10-7----7-----------------------------------------------------
G|-2-5-7----------------------------10---10-9-7-9b7-9----------------------------------------
D|-------------------------------------------------------------------------------------------
A|-------------------------------------------------------------------------------------------
E|-------------------------------------------------------------------------------------------

http://www.guitartabcreator.com
Guitar Tab Creator is intended to store guitar tab created through the tool. It currently does not support in-line text editing. Any text you place in here will be lost. If you need to comment on your tab, please use the "Tab Notes" section located below.