Sound will begin in 5 seconds

unassigned4

01234567891011121314151617181920212223
E
B
G
D
A
E
B
0 1 2 3 4 5 6 7 8 9 10 11 12 13 14 15 16 17 18 19 20 21 22 23
Song Science #1: How Pros Use 6 Chords to Write Hit Songs
(/) Slide Up  (\) Slide Down  (h) Hammer On  (p) Pull Off  (b) Bend (r) Release (v) Vibrato

(W|WW) Whole (H|HH) Half (Q|QQ) Quarter (E|EE) 8th (S|SS) 16th (T|TT) 32nd (X|XX) 64th

Stave 1:
t: W Q QQ Q QQ Q W QQ Q Q QQ Q
E|----------------------------|-------------------------|--
B|----------------------------|-------------------------|--
G|---------------7------------|-----10--9--7------------|--
D|--------9--10-----10--9-----|---------------10--9-----|--
A|----------------------------|--7----------------------|--
E|-----7----------------------|-------------------------|--

Stave 2:
t: W Q QQ Q QQ Q W WW W W WW W
E|-------------------------|-------------------------|--
B|-------------------------|-------------------------|--
G|------------7------------|-----10--9--7------------|--
D|-----9--10-----10--9-----|---------------10--9-----|--
A|-------------------------|--7----------------------|--
E|--7----------------------|-------------------------|--

Stave 3:
t: SS S S Q QQ Q QQ Q SS S S EE E E EE E
E|--------------------------------|--------------------------------|--
B|--------------------------------|--------------------------------|--
G|-------------------7------------|------------10--9--7------------|--
D|------------9--10-----10--9-----|----------------------10--9-----|--
A|--------------------------------|--10--9--7----------------------|--
E|--10--9--7----------------------|--------------------------------|--

Stave 4:
t: SS S S E EE E EE E SS S S QQ Q Q QQ Q
E|-----------------------------|-----------------------------
B|-----------------------------|-----------------------------
G|-------------------7---------|------------10--9--7---------
D|------------9--10-----10--9--|----------------------10--9--
A|-----------------------------|--10--9--7-------------------
E|--10--9--7-------------------|-----------------------------

http://www.guitartabcreator.com
Guitar Tab Creator is intended to store guitar tab created through the tool. It currently does not support in-line text editing. Any text you place in here will be lost. If you need to comment on your tab, please use the "Tab Notes" section located below.