Saturday Night - Elton John for Sam

Chords

01234567891011121314151617181920212223
E
B
G
D
A
E
B
0 1 2 3 4 5 6 7 8 9 10 11 12 13 14 15 16 17 18 19 20 21 22 23
(/) Slide Up  (\) Slide Down  (h) Hammer On  (p) Pull Off  (b) Bend (r) Release (v) Vibrato

Verse

E|------------------|------------------|------------------|------------------|--
B|------------------|------------------|------------------|------------------|--
G|--12--------------|--10--------------|------------------|--12--------------|--
D|--12--------------|--10--------------|--10--------------|--12--------------|--
A|--10--------------|--8---------------|--10--------------|--10--------------|--
E|------------------|------------------|--8---------------|------------------|--

Chorus

E|------------------|-----------------|------------------|------------------|--
B|------------------|-----------------|------------------|------------------|--
G|------------------|-----------------|--10--------------|------------------|--
D|--10--------------|--8--------------|--10--------------|--10--------------|--
A|--10--------------|--8--------------|--8---------------|--10--------------|--
E|--8---------------|--6--------------|------------------|--8---------------|--

							http://www.guitartabcreator.com
Instruments
{"strings":[[[".","_","_","_","_","|",".","_","_","_","_","|",".","_","_","_","_","|",".","_","_","_","_","|"],[".","_","_","_","_","|",".","_","_","_","_","|",".","_","_","_","_","|",".","_","_","_","_","|"],[12,"_","_","_","_","|",10,"_","_","_","_","|",".","_","_","_","_","|",12,"_","_","_","_","|"],[12,"_","_","_","_","|",10,"_","_","_","_","|",10,"_","_","_","_","|",12,"_","_","_","_","|"],[10,"_","_","_","_","|",8,"_","_","_","_","|",10,"_","_","_","_","|",10,"_","_","_","_","|"],[".","_","_","_","_","|",".","_","_","_","_","|",8,"_","_","_","_","|",".","_","_","_","_","|"]],[[".","_","_","_","_","|",".","_","_","_","_","|",".","_","_","_","_","|",".","_","_","_","_","|"],[".","_","_","_","_","|",".","_","_","_","_","|",".","_","_","_","_","|",".","_","_","_","_","|"],[".","_","_","_","_","|",".","_","_","_","_","|",10,"_","_","_","_","|",".","_","_","_","_","|"],[10,"_","_","_","_","|",8,"_","_","_","_","|",10,"_","_","_","_","|",10,"_","_","_","_","|"],[10,"_","_","_","_","|",8,"_","_","_","_","|",8,"_","_","_","_","|",10,"_","_","_","_","|"],[8,"_","_","_","_","|",6,"_","_","_","_","|",".","_","_","_","_","|",8,"_","_","_","_","|"]]],"numberofstrings":6,"notes":["E","B","G","D","A","E","B"],"capo":0,"stringnotes":["E4","B3","G3","D3","A2","E2"],"comments":["Verse","Chorus"],"timing":[["W",null,null,null,null,null,"W",null,null,null,null,null,"W",null,null,null,null,null,"W"],["W",null,null,null,null,null,"W",null,null,null,null,null,"W",null,null,null,null,null,"W"]],"timingvisible":false,"tabcounter":24,"stave":1,"totalstaves":2,"instrument":"6guitar","selectedtuning":"6_standard","version":"13"}

Member for

1 month 2 weeks
Submitted by mickeysticks on Wed, 2020-07-29 13:31