Peter Gunn Theme

Chords

01234567891011121314151617181920212223
E
B
G
D
A
E
B
0 1 2 3 4 5 6 7 8 9 10 11 12 13 14 15 16 17 18 19 20 21 22 23
(/) Slide Up  (\) Slide Down  (h) Hammer On  (p) Pull Off  (b) Bend (r) Release (v) Vibrato

Peter Gunn Theme - Main Riff

E|--------------------------|--------------------------|--
B|--------------------------|--------------------------|--
G|--------------------------|--------------------------|--
D|--------------------------|--------------------------|--
A|--------------------------|--------------------------|--
E|--0--0--2--0--3--0--5--3--|--0--0--2--0--3--0--5--3--|--



E|--------------------------|--------------------------|--
B|--------------------------|--------------------------|--
G|--------------------------|--------------------------|--
D|--------------------------|--------------------------|--
A|--------------------------|--------------------------|--
E|--0--0--2--0--3--0--5--3--|--0--0--2--0--3--0--5--3--|--



E|--------------------------|--------------------------|--
B|--------------------------|--------------------------|--
G|--------------------------|--------------------------|--
D|--------------------------|--------------------------|--
A|--------------------------|--------------------------|--
E|--0--0--2--0--3--0--5--3--|--0--0--2--0--3--0--5--3--|--

Break!! (STOP)

E|--------------------------|--------------------------|--
B|--------------------------|--------------------------|--
G|--------------------------|--------------------------|--
D|--------------------------|--------------------------|--
A|--------------------------|--------------------2--2--|--
E|--0-----------------0--0--|--------------------------|--

							http://www.guitartabcreator.com
Instruments
{"strings":[[[".",".",".",".",".",".",".",".","|",".",".",".",".",".",".",".",".","|"],[".",".",".",".",".",".",".",".","|",".",".",".",".",".",".",".",".","|"],[".",".",".",".",".",".",".",".","|",".",".",".",".",".",".",".",".","|"],[".",".",".",".",".",".",".",".","|",".",".",".",".",".",".",".",".","|"],[".",".",".",".",".",".",".",".","|",".",".",".",".",".",".",".",".","|"],[0,0,2,0,3,0,5,3,"|",0,0,2,0,3,0,5,3,"|"]],[[".",".",".",".",".",".",".",".","|",".",".",".",".",".",".",".",".","|"],[".",".",".",".",".",".",".",".","|",".",".",".",".",".",".",".",".","|"],[".",".",".",".",".",".",".",".","|",".",".",".",".",".",".",".",".","|"],[".",".",".",".",".",".",".",".","|",".",".",".",".",".",".",".",".","|"],[".",".",".",".",".",".",".",".","|",".",".",".",".",".",".",".",".","|"],[0,0,2,0,3,0,5,3,"|",0,0,2,0,3,0,5,3,"|"]],[[".",".",".",".",".",".",".",".","|",".",".",".",".",".",".",".",".","|"],[".",".",".",".",".",".",".",".","|",".",".",".",".",".",".",".",".","|"],[".",".",".",".",".",".",".",".","|",".",".",".",".",".",".",".",".","|"],[".",".",".",".",".",".",".",".","|",".",".",".",".",".",".",".",".","|"],[".",".",".",".",".",".",".",".","|",".",".",".",".",".",".",".",".","|"],[0,0,2,0,3,0,5,3,"|",0,0,2,0,3,0,5,3,"|"]],[[".","_","_","_","_","_",".",".","|","_","_","_","_","_","_",".",".","|"],[".","_","_","_","_","_",".",".","|","_","_","_","_","_","_",".",".","|"],[".","_","_","_","_","_",".",".","|","_","_","_","_","_","_",".",".","|"],[".","_","_","_","_","_",".",".","|","_","_","_","_","_","_",".",".","|"],[".","_","_","_","_","_",".",".","|","_","_","_","_","_","_",2,2,"|"],[0,"_","_","_","_","_",0,0,"|","_","_","_","_","_","_",".",".","|"]]],"numberofstrings":6,"notes":["E","B","G","D","A","E","B"],"capo":0,"stringnotes":["E4","B3","G3","D3","A2","E2"],"comments":["Peter Gunn Theme - Main Riff","","","Break!! (STOP)"],"timing":[["W","W","W","W","W","W","W","W",null,"W","W","W","W","W","W","W","W",null,"W","W","W","W","W","W","W","W",null,"W","W","W","W","W","W","W","W"],["W","W","W","W","W","W","W","W",null,"W","W","W","W","W","W","W","W"],["W","W","W","W","W","W","W","W",null,"W","W","W","W","W","W","W","W"],["W",null,null,null,null,null,"W","W",null,null,null,null,null,null,null,"W","W"]],"timingvisible":false,"tabcounter":18,"stave":3,"totalstaves":4,"instrument":"6guitar","selectedtuning":"6_standard","version":"13"}

Member for

3 months
Submitted by mickeysticks on Tue, 2020-07-21 09:44