Kiss of Death - Charlie the Beast

Chords

01234567891011121314151617181920212223
E
B
G
D
A
E
B
0 1 2 3 4 5 6 7 8 9 10 11 12 13 14 15 16 17 18 19 20 21 22 23
(/) Slide Up  (\) Slide Down  (h) Hammer On  (p) Pull Off  (b) Bend (r) Release (v) Vibrato

Stave 1:

E|-----------------|--------------0--|--------------|--------------|-----------------|--
B|-----------------|-----------------|--3--2--0--0--|--------------|--2-----------0--|--
G|-----------------|-----------2-----|--------------|--2-----------|-----2--2--------|--
D|-----------------|-----------------|--------------|--------------|-----------------|--
A|-----------------|-----------------|--------------|--------------|-----------------|--
E|-----------------|-----------------|--------------|--------------|-----------------|--

Stave 2:

E|-----------------|-----------------|--2-----4--5--|--1--1--0-----|--0--1--0--------|--
B|--2--------------|-----------------|--------------|-----------1--|-----------1-----|--
G|-----1--1--2--2--|-----------------|--------------|--------------|-----------------|--
D|-----------------|-----------------|--------------|--------------|-----------------|--
A|-----------------|-----------------|--------------|--------------|-----------------|--
E|-----------------|-----------------|--------------|--------------|-----------------|--

Stave 3:

E|--1--0--------1--|--0--------------|--1--0-----------|-----------|--1--0--------1--|--
B|--------1--------|-----------1-----|--------1--------|-----------|--------1--------|--
G|-----------2-----|-----------------|-----------3--2--|--------0--|-----------2-----|--
D|-----------------|-----------------|-----------------|-----------|-----------------|--
A|-----------------|-----------------|-----------------|-----------|-----------------|--
E|-----------------|-----------------|-----------------|-----------|-----------------|--

Stave 4:

E|--0--------------|--1--0-----------|--------5--6--5--3--|--1-----3-----5-----5--|--
B|-----------1--1--|--------1--3-----|--------------------|-----------------------|--
G|-----------------|-----------------|--------------------|-----------------------|--
D|-----------------|-----------------|--------------------|-----------------------|--
A|-----------------|-----------------|--------------------|-----------------------|--
E|-----------------|-----------------|--------------------|-----------------------|--

Stave 5:

E|--------5--6--5--3--|--1--5--1--1--|--------5--6--5--3--|--1--3--5--5--|--
B|--------------------|--------------|--------------------|--------------|--
G|--------------------|--------------|--------------------|--------------|--
D|--------------------|--------------|--------------------|--------------|--
A|--------------------|--------------|--------------------|--------------|--
E|--------------------|--------------|--------------------|--------------|--

Stave 6:

E|--5--3--1--3--|--6--5--------|--
B|--------------|--------------|--
G|--------------|--------------|--
D|--------------|--------------|--
A|--------------|--------------|--
E|--------------|--------------|--

Stave 7:

E|--
B|--
G|--
D|--
A|--
E|--

							http://www.guitartabcreator.com
Instruments
{"strings":[[["_","_","_","_","_","|","_","_","_",".",0,"|",".",".",".",".","|",".","_","_","_","|",".",".",".","_",".","|"],["_","_","_","_","_","|","_","_","_",".",".","|",3,2,0,0,"|",".","_","_","_","|",2,".",".","_",0,"|"],["_","_","_","_","_","|","_","_","_",2,".","|",".",".",".",".","|",2,"_","_","_","|",".",2,2,"_",".","|"],["_","_","_","_","_","|","_","_","_",".",".","|",".",".",".",".","|",".","_","_","_","|",".",".",".","_",".","|"],["_","_","_","_","_","|","_","_","_",".",".","|",".",".",".",".","|",".","_","_","_","|",".",".",".","_",".","|"],["_","_","_","_","_","|","_","_","_",".",".","|",".",".",".",".","|",".","_","_","_","|",".",".",".","_",".","|"]],[[".",".",".",".",".","|","_","_","_","_","_","|",2,"_",4,5,"|",1,1,0,".","|",0,1,0,".","_","|"],[2,".",".",".",".","|","_","_","_","_","_","|",".","_",".",".","|",".",".",".",1,"|",".",".",".",1,"_","|"],[".",1,1,2,2,"|","_","_","_","_","_","|",".","_",".",".","|",".",".",".",".","|",".",".",".",".","_","|"],[".",".",".",".",".","|","_","_","_","_","_","|",".","_",".",".","|",".",".",".",".","|",".",".",".",".","_","|"],[".",".",".",".",".","|","_","_","_","_","_","|",".","_",".",".","|",".",".",".",".","|",".",".",".",".","_","|"],[".",".",".",".",".","|","_","_","_","_","_","|",".","_",".",".","|",".",".",".",".","|",".",".",".",".","_","|"]],[[1,0,".",".",1,"|",0,"_","_",".","_","|",1,0,".",".",".","|","_","_","_","|",1,0,".",".",1,"|"],[".",".",1,".",".","|",".","_","_",1,"_","|",".",".",1,".",".","|","_","_","_","|",".",".",1,".",".","|"],[".",".",".",2,".","|",".","_","_",".","_","|",".",".",".",3,2,"|","_","_",0,"|",".",".",".",2,".","|"],[".",".",".",".",".","|",".","_","_",".","_","|",".",".",".",".",".","|","_","_","_","|",".",".",".",".",".","|"],[".",".",".",".",".","|",".","_","_",".","_","|",".",".",".",".",".","|","_","_","_","|",".",".",".",".",".","|"],[".",".",".",".",".","|",".","_","_",".","_","|",".",".",".",".",".","|","_","_","_","|",".",".",".",".",".","|"]],[[0,"_","_",".",".","|",1,0,".",".","_","|","_","_",5,6,5,3,"|",1,"_",3,"_",5,"_",5,"|"],[".","_","_",1,1,"|",".",".",1,3,"_","|","_","_",".",".",".",".","|",".","_",".","_",".","_",".","|"],[".","_","_",".",".","|",".",".",".",".","_","|","_","_",".",".",".",".","|",".","_",".","_",".","_",".","|"],[".","_","_",".",".","|",".",".",".",".","_","|","_","_",".",".",".",".","|",".","_",".","_",".","_",".","|"],[".","_","_",".",".","|",".",".",".",".","_","|","_","_",".",".",".",".","|",".","_",".","_",".","_",".","|"],[".","_","_",".",".","|",".",".",".",".","_","|","_","_",".",".",".",".","|",".","_",".","_",".","_",".","|"]],[["_","_",5,6,5,3,"|",1,5,1,1,"|","_","_",5,6,5,3,"|",1,3,5,5,"|"],["_","_",".",".",".",".","|",".",".",".",".","|","_","_",".",".",".",".","|",".",".",".",".","|"],["_","_",".",".",".",".","|",".",".",".",".","|","_","_",".",".",".",".","|",".",".",".",".","|"],["_","_",".",".",".",".","|",".",".",".",".","|","_","_",".",".",".",".","|",".",".",".",".","|"],["_","_",".",".",".",".","|",".",".",".",".","|","_","_",".",".",".",".","|",".",".",".",".","|"],["_","_",".",".",".",".","|",".",".",".",".","|","_","_",".",".",".",".","|",".",".",".",".","|"]],[[5,3,1,3,"|",6,5,"_","_","|"],[".",".",".",".","|",".",".","_","_","|"],[".",".",".",".","|",".",".","_","_","|"],[".",".",".",".","|",".",".","_","_","|"],[".",".",".",".","|",".",".","_","_","|"],[".",".",".",".","|",".",".","_","_","|"]],[[],[],[],[],[],[]]],"numberofstrings":6,"notes":["E","B","G","D","A","E","B"],"capo":0,"stringnotes":["E4","B3","G3","D3","A2","E2"],"comments":["Stave 1:","Stave 2:","Stave 3:","Stave 4:","Stave 5:","Stave 6:","Stave 7:"],"timing":[["W","W","W","W","W","W",null,null,"W","W","W",null,"W","W","W","W",null,"W",null,null,null,null,"W","W","W",null,"W"],["W","W","W","W","W",null,null,null,null,null,null,null,"W",null,"W","W","W","W","W","W","W",null,"W","W","W","W"],["W","W","W","W","W",null,"W",null,null,"W",null,null,"W","W","W","W","W",null,null,null,null,"W",null,"W","W","W","W","W"],["W",null,null,"W","W",null,"W","W","W","W",null,null,null,null,"W","W","W","W",null,"W","W","W","W","W",null,"W"],["W",null,"W","W","W","W",null,"W","W","W","W",null,null,null,"W","W","W","W",null,"W","W","W","W"],["W","W","W","W",null,"W","W"],["W"]],"timingvisible":false,"tabcounter":4,"stave":1,"totalstaves":7,"instrument":"6guitar","selectedtuning":"6_standard","version":"13"}

Member for

3 months
Submitted by mickeysticks on Wed, 2020-07-08 10:31