A.K. If I ain't got you

01234567891011121314151617181920212223
E
B
G
D
A
E
B
0 1 2 3 4 5 6 7 8 9 10 11 12 13 14 15 16 17 18 19 20 21 22 23
(/) Slide Up  (\) Slide Down  (h) Hammer On  (p) Pull Off  (b) Bend (r) Release (v) Vibrato

Stave 1:

E|--9--------9--------9--------|--9--------9--------9--------|--7--------7--------7--------|--7--------7--------7--------|--
B|-----9--------9--------9-----|-----9--------9--------------|-----7--------7--------7-----|-----7--------7--------------|--
G|--------9--------9--------9--|--------9--------9-----------|--------8--------8--------8--|--------8--------8-----------|--
D|--7--------------------------|-----------------------------|--6--------------------------|--6--------------------------|--
A|-----------------------------|-----------------------------|-----------------------------|-----------------------------|--
E|-----------------------------|-----------------------------|-----------------------------|-----------------------------|--

Stave 2:

E|--5--------5--------5--------|--5--------5--------5--------|--4--------4--------4--------|--4--------5--------7--------|--
B|-----5--------5--------5-----|-----5--------5--------------|-----4--------4--------4-----|--4--------5--------7--------|--
G|--------6--------6--------6--|--------6--------6-----------|--------4--------4--------4--|-----------------------------|--
D|--4--------------------------|--4--------------------------|--2--------------------------|--2--------4--------6--------|--
A|-----------------------------|-----------------------------|-----------------------------|-----------------------------|--
E|-----------------------------|-----------------------------|-----------------------------|-----------------------------|--

Stave 3:

E|--9--------9--------9--------|--9--------9--------9--------|--7--------7--------7--------|--7--------7--------6--------|--
B|-----9--------9--------9-----|-----9--------9--------------|-----7--------7--------7-----|-----7--------7-----6--------|--
G|--------9--------9--------9--|--------9--------9-----------|--------8--------8--------8--|--------8--------------------|--
D|--7--------------------------|--7--------------------------|--6--------------------------|--6-----------------5--------|--
A|-----------------------------|-----------------------------|-----------------------------|-----------------------------|--
E|-----------------------------|-----------------------------|-----------------------------|-----------------------------|--

Stave 4:

E|--5--------5--------5--------|--5--------5--------5--------|--4--------4--------4--------|-----------------------------|--
B|-----5--------5--------5-----|-----5--------5--------------|-----4--------4--------4-----|-----------------------------|--
G|--------6--------6--------6--|--------6--------6-----------|--------4--------4--------4--|-----------------------------|--
D|--4--------------------------|--4--------------------------|--2--------------------------|--2--------------------------|--
A|-----------------------------|-----------------------------|-----------------------------|-----------------------------|--
E|-----------------------------|-----------------------------|-----------------------------|-----------------------2-----|--

Stave 5:

E|----------------------------|-------------------------------|-----------------------0-----|--0--------------0-----------|--
B|----------------------------|-------------------------------|-----------------------------|--0--------------0-----------|--
G|----------------------------|-------------------------------|--------------------4--------|--4--------------------------|--
D|--------------4/6--4--6--4--|--4-----------------4--6--4\2--|--4--2-----------2-----------|--2--------------------------|--
A|----------------------------|-------------------------------|--4-----------4--------------|--4-----------------4--------|--
E|--0-------------------------|-----------0-------------------|-----------------------------|--------------------------3--|--

Stave 6:

E|--
B|--
G|--
D|--
A|--
E|--

							http://www.guitartabcreator.com
Chords

Instruments
{"strings":[[[9,".",".",9,".",".",9,".",".","|",9,".",".",9,".",".",9,"_","_","|",7,".",".",7,".",".",7,".",".","|",7,".",".",7,".",".",7,"_","_","|"],[".",9,".",".",9,".",".",9,".","|",".",9,".",".",9,".",".","_","_","|",".",7,".",".",7,".",".",7,".","|",".",7,".",".",7,".",".","_","_","|"],[".",".",9,".",".",9,".",".",9,"|",".",".",9,".",".",9,".","_","_","|",".",".",8,".",".",8,".",".",8,"|",".",".",8,".",".",8,".","_","_","|"],[7,".",".",".",".",".",".",".",".","|",".",".",".",".",".",".",".","_","_","|",6,".",".",".",".",".",".",".",".","|",6,".",".",".",".",".",".","_","_","|"],[".",".",".",".",".",".",".",".",".","|",".",".",".",".",".",".",".","_","_","|",".",".",".",".",".",".",".",".",".","|",".",".",".",".",".",".",".","_","_","|"],[".",".",".",".",".",".",".",".",".","|",".",".",".",".",".",".",".","_","_","|",".",".",".",".",".",".",".",".",".","|",".",".",".",".",".",".",".","_","_","|"]],[[5,".",".",5,".",".",5,".",".","|",5,".",".",5,".",".",5,"_","_","|",4,".",".",4,".",".",4,".",".","|",4,"_","_",5,"_","_",7,"_","_","|"],[".",5,".",".",5,".",".",5,".","|",".",5,".",".",5,".",".","_","_","|",".",4,".",".",4,".",".",4,".","|",4,"_","_",5,"_","_",7,"_","_","|"],[".",".",6,".",".",6,".",".",6,"|",".",".",6,".",".",6,".","_","_","|",".",".",4,".",".",4,".",".",4,"|",".","_","_",".","_","_",".","_","_","|"],[4,".",".",".",".",".",".",".",".","|",4,".",".",".",".",".",".","_","_","|",2,".",".",".",".",".",".",".",".","|",2,"_","_",4,"_","_",6,"_","_","|"],[".",".",".",".",".",".",".",".",".","|",".",".",".",".",".",".",".","_","_","|",".",".",".",".",".",".",".",".",".","|",".","_","_",".","_","_",".","_","_","|"],[".",".",".",".",".",".",".",".",".","|",".",".",".",".",".",".",".","_","_","|",".",".",".",".",".",".",".",".",".","|",".","_","_",".","_","_",".","_","_","|"]],[[9,".",".",9,".",".",9,".",".","|",9,".",".",9,".",".",9,"_","_","|",7,".",".",7,".",".",7,".",".","|",7,".",".",7,".","_",6,"_","_","|"],[".",9,".",".",9,".",".",9,".","|",".",9,".",".",9,".",".","_","_","|",".",7,".",".",7,".",".",7,".","|",".",7,".",".",7,"_",6,"_","_","|"],[".",".",9,".",".",9,".",".",9,"|",".",".",9,".",".",9,".","_","_","|",".",".",8,".",".",8,".",".",8,"|",".",".",8,".",".","_",".","_","_","|"],[7,".",".",".",".",".",".",".",".","|",7,".",".",".",".",".",".","_","_","|",6,".",".",".",".",".",".",".",".","|",6,".",".",".",".","_",5,"_","_","|"],[".",".",".",".",".",".",".",".",".","|",".",".",".",".",".",".",".","_","_","|",".",".",".",".",".",".",".",".",".","|",".",".",".",".",".","_",".","_","_","|"],[".",".",".",".",".",".",".",".",".","|",".",".",".",".",".",".",".","_","_","|",".",".",".",".",".",".",".",".",".","|",".",".",".",".",".","_",".","_","_","|"]],[[5,".",".",5,".",".",5,".",".","|",5,".",".",5,".",".",5,"_","_","|",4,".",".",4,".",".",4,".",".","|",".","_","_","_","_","_","_",".","_","|"],[".",5,".",".",5,".",".",5,".","|",".",5,".",".",5,".",".","_","_","|",".",4,".",".",4,".",".",4,".","|",".","_","_","_","_","_","_",".","_","|"],[".",".",6,".",".",6,".",".",6,"|",".",".",6,".",".",6,".","_","_","|",".",".",4,".",".",4,".",".",4,"|",".","_","_","_","_","_","_",".","_","|"],[4,".",".",".",".",".",".",".",".","|",4,".",".",".",".",".",".","_","_","|",2,".",".",".",".",".",".",".",".","|",2,"_","_","_","_","_","_",".","_","|"],[".",".",".",".",".",".",".",".",".","|",".",".",".",".",".",".",".","_","_","|",".",".",".",".",".",".",".",".",".","|",".","_","_","_","_","_","_",".","_","|"],[".",".",".",".",".",".",".",".",".","|",".",".",".",".",".",".",".","_","_","|",".",".",".",".",".",".",".",".",".","|",".","_","_","_","_","_","_",2,"_","|"]],[[".","_","_","_",".",".",".",".",".",".","|",".","_","_",".","_","_",".",".",".",".",".","|",".",".","_","_",".",".",".",0,"_","|",0,"_","_","_","_",0,".","_",".","|"],[".","_","_","_",".",".",".",".",".",".","|",".","_","_",".","_","_",".",".",".",".",".","|",".",".","_","_",".",".",".",".","_","|",0,"_","_","_","_",0,".","_",".","|"],[".","_","_","_",".",".",".",".",".",".","|",".","_","_",".","_","_",".",".",".",".",".","|",".",".","_","_",".",".",4,".","_","|",4,"_","_","_","_",".",".","_",".","|"],[".","_","_","_",4,"/",6,4,6,4,"|",4,"_","_",".","_","_",4,6,4,"\\",2,"|",4,2,"_","_",".",2,".",".","_","|",2,"_","_","_","_",".",".","_",".","|"],[".","_","_","_",".",".",".",".",".",".","|",".","_","_",".","_","_",".",".",".",".",".","|",4,".","_","_",4,".",".",".","_","|",4,"_","_","_","_",".",4,"_",".","|"],[0,"_","_","_",".",".",".",".",".",".","|",".","_","_",0,"_","_",".",".",".",".",".","|",".",".","_","_",".",".",".",".","_","|",".","_","_","_","_",".",".","_",3,"|"]],[[],[],[],[],[],[]]],"numberofstrings":6,"notes":["E","B","G","D","A","E","B"],"capo":0,"stringnotes":["E4","B3","G3","D3","A2","E2"],"comments":["Stave 1:","Stave 2:","Stave 3:","Stave 4:","Stave 5:","Stave 6:"],"timing":[[null,null,null,null,null,null,null,null,null,null,null,null,null,null,null,null,null,null,null,null,null,null,null,null,null,null,null,null,null,null,"W","W","W","W","W","W","W","W","W",null],["W","W","W","W","W","W","W","W","W",null,"W","W","W","W","W","W","W","W","W",null,"W","W","W","W","W","W","W","W","W",null,"W","W","W","W","W","W","W","W","W"],["W","W","W","W","W","W","W","W","W",null,"W","W","W","W","W","W","W","W","W",null,"W","W","W","W","W","W","W","W","W",null,"W","W","W","W","W","W","W","W","W"],["W","W","W","W","W","W","W","W","W",null,"W","W","W","W","W","W","W","W","W",null,"W","W","W","W","W","W","W","W","W",null,"W","W","W","W","W","W","W","W","W"],["W","W","W","W","W",null,"W","W","W","W",null,"W","W","W","W","W","W","W","W","W",null,"W",null,"W","W","W","W","W","W","W","W","W",null,"W","W","W","W","W","W","W","W","W"],[]],"timingvisible":false,"tabcounter":0,"stave":5,"totalstaves":6,"instrument":"6guitar","selectedtuning":"6_standard","version":"13"}

Member for

9 months
Submitted by Michels on Fri, 2021-11-12 11:53